Donovan - Hurdy Gurdy Man Chords & Tabs

 

Hurdy Gurdy Man Chords & Tabs

Donovan Chords & Tabs

Version: 1 Type: Bass Tab 0 ratings
1 star 2 stars 3 stars 4 stars 5 stars
comments

Hurdy Gurdy Man Bass Tab

Hurdy Gurdy Man - Donovan
[ Tab from: http://www.guitartabs.cc/tabs/d/donovan/hurdy_gurdy_man_btab.html ]
  intro              verse            "'twas then that the Hurdy Gurdy Man.."
G|-----------------|------------------|--------------------------------------------------------|
D|3---2------------|----3----2----3---|----3-------5-5---5--5------3-------5-5---5---5-5-5-5-5-|
A|-----3--235-535--|-----2--2-3--3-5--|-----3--235--5-5-5--5-5------3--235--5-5-5--5-5---------|
E|---3-------------|3--3--------------|2--2--------------------2--2----------------------------|

  chorus "Hurdy gurdy gurdy gurdy.."
G|--------------------------------------------------------------------|
D|3--3--------5--5--3--3--------5--5--3--3--------5--5--3-------5-5-5-|
A|----3--3---5--5-5-----3--3---5--5-5-----3--3---5--5-5----3---5------|
E|--------3-----------------3-----------------3---------------3-------|

tabbed by Achilles (blue_sincere@hotmail.com)
Comments