Donots - Whatever Happened To The 80s Chords & Tabs

 

Whatever Happened To The 80s Chords & Tabs

Donots Chords & Tabs

Version: 1 Type: Tab 0 ratings
1 star 2 stars 3 stars 4 stars 5 stars
comments

Whatever Happened To The 80s Tab

   
#----------------------------------PLEASE NOTE--------------------------------#
#This file is the author's own work and represents their interpretation of the#
#song. You may only use this file for private study, scholarship, or research.#
#-----------------------------------------------------------------------------#

Donots - Whatever Happened To The 80's
(Album: Pocketrock)

Tabed by: René Schubert

This is my first almost completely tab.But I think most of it is correct.
If you listen carefully to this song playing it will be pretty easy.
The only things I don't get are the riff played by a 3rd guitar in the
2nd chorus and how to play the interlude.If you can make it out or if
you have some corrections or suggestions e-mail me at: "Rene_res@web.de"
(better in german,but not necessary)
(by the way:I would be happy about the bass and drum tab!)
>sorry for possible grammar/spelling mistakes

- tune both(all) guitars down 1/2 step!

*Riff1:
                                    3x
Eb: 7---7-9-----7-----6-----7---7---:|7-7-7-7-7-7-7-7-7-7-7-7-7-7-7-7-|
Bb: --7-----------------------------:|--------------------------------|
[ Tab from: http://www.guitartabs.cc/tabs/d/donots/whatever_happened_to_the_80s_tab.html ]
*Riff2:
    Bb              F               C               Eb
Gb: 4-4-4-4-4-4-4-4-----------------6-6-6-6-6-6-6-6-----------------|
Db: 4-4-4-4-4-4-4-4-4-4-4-4-4-4-4-4-6-6-6-6-6-6-6-6-2-2-2-2-2-2-2-2-|
Ab: 2-2-2-2-2-2-2-2-4-4-4-4-4-4-4-4-4-4-4-4-4-4-4-4-2-2-2-2-2-2-2-2-|
Eb: ----------------2-2-2-2-2-2-2-2-----------------0-0-0-0-0-0-0-0-|

*Riff3:
    Bb              F               Eb
Gb: 4-4-4-4-4-4-4-4-------------------------------------------------|
Db: 4-4-4-4-4-4-4-4-4-4-4-4-4-4-4-4-2-2-2-2-2-2-2-2-2-2-2-2-2-2-2-2-|
Ab: 2-2-2-2-2-2-2-2-4-4-4-4-4-4-4-4-2-2-2-2-2-2-2-2-2-2-2-2-2-2-2-2-|
Eb: ----------------2-2-2-2-2-2-2-2-0-0-0-0-0-0-0-0-0-0-0-0-0-0-0-0-|

Riff4:
    Bb    F   Eb            F 3x
Db: 4-4-----------------------:|-------------------------------
Ab: 2-2---4---2-2-2-----2-2-4-:|-4-4-4-4-4-4-4-4-4-4-4-4-4-4-4-4
Eb: ------2---0-0-0-----0-0-2-:|-2-2-2-2-2-2-2-2-2-2-2-2-2-2-2-2
 pm ............................................   .............

*Riff5:
    Bb    F   Eb            F 2x
Db: 4-4-----------------------:|
Ab: 2-2---4---2-2-2-----2-2-4-:|
Eb: ------2---0-0-0-----0-0-2-:|

*Riff6a:
Ab: 6-6-6-6-4-4-4-4-2-2-2-2-4-4-4-4-6-6-6-6-4-4-4-4-2-2-2-2-|
Eb: 4-4-4-4-2-2-2-2-0-0-0-0-2-2-2-2-4-4-4-4-2-2-2-2-0-0-0-0-|
 pm ...   .....   .....   .....   .....   .....   .

*Riff6b:
Ab: 6-6-6---4-4-4---2-2-2---4-4-4---6-6-6---4-4-4---2-2-2-2-|
Eb: 4-4-4---2-2-2---0-0-0---2-2-2---4-4-4---2-2-2---0-0-0-0-|
 pm ...     ...     ...     ...     ...     ...

Bb         F              C               Eb
   Oooooohhhoooo,Whatever happened to the 80's?

>>>SEQUENCE
Comments