Donots - Today Chords & Tabs

 

Today Chords & Tabs

Donots Chords & Tabs

Version: 1 Type: Tab 0 ratings
1 star 2 stars 3 stars 4 stars 5 stars
comments

Today Tab

   
#------------Created with Taborama Tab Creator-----------------#
#------------------------------------------------------------------------------#

Title:Today
Artist:Donots
Album:Pocketrock 

Tabbed by:  (Jan)

Tuning: Standard (E A D G B E)

Intro: first you play this riff muted (an octave lower if you want) and when guitar 2
comes in unmuted and this way

E|-------------------------------------------------------------------||
B|-666-4---44--44-6---666-4---44-66-44-------------------------------||
G|------6----66------------6----------6------------------------------||
D|-------------------------------------------------------------------||
A|-------------------------------------------------------------------||
E|-------------------------------------------------------------------||
[ Tab from: http://www.guitartabs.cc/tabs/d/donots/today_tab.html ]
guitar2 plays (it's the chorus btw)
E|-------------------------------------------------------------------||
B|-------------------------------------------------------------------||
G|--6-----3----------------------------------------------------------||
D|--6--6--3--4-------------------------------------------------------||
A|--4--6--1--4-------------------------------------------------------||
E|-----4-----2-------------------------------------------------------||

verse: play muted with some releases
E|-------------------------------------------------------------------||
B|-------------------------------------------------------------------||
G|-6-----3-----6-----------------------------------------------------||
D|-6--6--3--4--6--6--4-----------------------------------------------||
A|-4--6--1--4--4--6--4-----------------------------------------------||
E|----4-----2-----4--2-----------------------------------------------||

bridge
E|-------------------------------------------------------------------||
B|-------------------------------------------------------------------||
G|--9-8-9-8-9-8--6---------------------------------------------------||
D|--9-8-9-8-9-8--6---------------------------------------------------||
A|--7/6/7/6/7/6--4-~-------------------------------------------------||
E|-------------------------------------------------------------------||

during choruses one guitar usually comes in with the unmuted intropart

there are some more fills in there but these are the main parts, email me if you found mistakes or want to add anything: elpollo_diablo@gmx.net

great song great band have fun
==
Comments