Donots - Room With A View Chords & Tabs

 

Room With A View Chords & Tabs

Donots Chords & Tabs

Version: 1 Type: Tab 0 ratings
1 star 2 stars 3 stars 4 stars 5 stars
comments

Room With A View Tab

Donots – Room with a view

Intro/Verse:

  8xpm. 8xpm. 8xpm.
e--------------------------------------------------------|
H--------------------------------------------------------|
G--------8-----------------------------------------------|
D--6-----8-----8-----8-\-10-10-10-10--/-8-8--------------|
A--6-----6-----8-----8-\-10-10-10-10--/-8-8--------------|
E--4-----------6-----6-\--8---8--8--8-/-6-6--------------|



Pre-Chorus:
[ Tab from: http://www.guitartabs.cc/tabs/d/donots/room_with_a_view_tab.html ]
      8x
e--------------------------|-last time this one-----------|
H--------------------------|-~8x pm.----------------------|
G--------------8-----5-----|---8--------------------------|
D--6-----8-----8-----5-----|---8--------------------------|
A--6-----8-----6-----3-----|---6--------------------------|
E--4-----6-----------------|------------------------------|


Chorus:

  8x     8x    16x
e---------------------------------------------------------|
e---------------------------------------------------------|
G---------------------------------------------------------|
D--10-----8-----6-----------------------------------------|
A--10-----8-----6-----------------------------------------|
E---8-----6-----4-----------------------------------------|


Post-Chrous
   6x       3x
e---------------------------------------------------------|
e---------------------------------------------------------|
G---------------------------------------------------------|
D--10-/-8-\-10--------------------------------------------|
A--10-/-8-\-10--------------------------------------------|
E---8-/-6-\--8--------------------------------------------|
Comments