Donnas - Take It Off Chords & Tabs

 

Take It Off Chords & Tabs

Donnas Chords & Tabs

Version: 1 Type: Tab 0 ratings
1 star 2 stars 3 stars 4 stars 5 stars
comments

Take It Off Tab

Song: Take It Off
Artist: Donnas
Album: Spend the night ('2002)


Tuning: Standard

Intro

e  ---------------------------------------------
b  --------------2--2--2-2-2-2------------------
g  --4-6-6-4--3--2--2-3-3-2---------------------
d  --4-6-6-4--0--2--2-0-0-2---------------------
a  --2-2-2-2--0--0--0-0-0-0---------------------
E  ---------------------------------------------

e  -----------3-3-3------------------------------
b  -----------3-3-3--2-2-2-----------------------
g  --4-6-6-4--0-0-0--2-3-2-----------------------
d  --4-6-6-4--0-0-0--2-0-2-----------------------
a  --2-2-2-2--x-x-x--0-0-0-----------------------
E  -----------3-3-3------------------------------

Outro

e  ---------------------------------------------
b  --12-12-12-12-12-12-12-12--------------------
g  ---------------------------------------------
d  ---------------------------------------------
a  ---------------------------------------------
E  ---------------------------------------------

Verse

"I'm On My Second Drink."
[ Tab from: http://www.guitartabs.cc/tabs/d/donnas/take_it_off_tab.html ]
e  ---------------------------------------------
b  ----------2--2--2-2-2------------------------
g  --4--4-4--3--2--3-3-2------------------------
d  --4--4-4--0--2--0-0-2------------------------
a  --2--2-2--0--0--0-0-0------------------------
E  ---------------------------------------------





"But I Have Had A Few Before..."

e  ----------3-3-3------------------------------
b  ----------3-3-3--2-3-2-----------------------
g  --4--4-4--0-0-0--2-2-2-----------------------
d  --4--4-4--0-0-0--2-0-2-----------------------
a  --2--2-2--x-x-x--0-0-0-----------------------
E  ----------3-3-3------------------------------

Chorus (Chords)

"Go On And Take It Off."

e  ------------0---------------------------------
b  -----2--2---0-----2----------------------------
g  --4--3--2---1-----2----------------------------
d  --4--0--2---2--5--2----------------------------
a  --2-----0---2--5--0---------------------------
E  ----------- 0--3-----------------------------

Outro (Let The A Chord Ring Out)

e  ----------------------------------------------
b  --2-------------------------------------------
g  --2-------------------------------------------
d  --2-------------------------------------------
a  --0-------------------------------------------
E  ----------------------------------------------

No bridge... no solo... but yall get the idea... I hope.
=^_^=
feel free to talk to me 'bout it ~~>roze_angel@hotmail.com
                                                             -sleepwalker-
Comments