Donnas - Revolver Chords & Tabs

 

Revolver Chords & Tabs

Donnas Chords & Tabs

Version: 1 Type: Tab 0 ratings
1 star 2 stars 3 stars 4 stars 5 stars
comments

Revolver Tab

   
-----------------------------------------------------------------------------
				REVOLVER - THE DONNAS
-----------------------------------------------------------------------------
Tabbed By: Nicholas Bradley
Email: RDK1LL@Hotmail.com
Comment: Found on the "Gold Medal" album, this song is played at a slow tempo
         and still Rocks!!! The solo is a good one to learn, if you can
         Figure it out.

Intro:
(clean elec w/slight crunch)

   PM. . . . . . .   . . . . . . .            PM. . . . .  . . . . . . .
e|------------------------------------|------------------------------------|
B|------------------------------------|------------------------------------|
G|-5---5---5---5-----5---5---5---5----|-------5---5---5----5---5---5---5---|
D|-7-7-7-7-7-7-7-7---7-7-7-7-7-7-7-5--|-(5)-7-7-7-7-7-7-7--7-7-7-7-7-7-7-5-|
A|---0---0---0---0-----0---0---0---0--|-(0)-0---0---0---0----0---0---0---0-|
E|------------------------------------|------------------------------------|

         PM. . . . . .  . . . . . .           PM. . . . .  . . . .  
e|------------------------------------|------------------------------------|
B|------------------------------------|------------------------------------|
G|-------5---5---5----5---5---5---5---|-------5---5---5----5---5---------7-|
D|-(5)-7-7-7-7-7-7-7--7-7-7-7-7-7-7-5-|-(5)-7-7-7-7-7-7-7--7-7-7-7---------|
A|-(0)-0---0---0---0----0---0---0---0-|-(0)-0---0---0---0----0---0-0-(0)---|
E|------------------------------------|------------------------------------|

Verse 1:
      half cocked and fully loaded,         
e|------------------0-(0)--0-----------|------------------------------------|
B|-------8-----------------------6-----|-----8------------------------------|
G|-(7/9)---7\5---------------5h7---7/9-|-(9)---7\5-------5-------5--------7-|
D|-------------7-(7)-----7-------------|-----------7-(7)-----7-------7------|
A|-------------------------------------|------------------------------------|
E|-------------------------------------|------------------------------------|
    
      not even trying to sugar coat it
e|------------------0-(0)--0-----------|-----------------0------0-----------|
B|-------8-----------------------6-6/8-|-(8)-8------------------------------|
G|-(7/9)---7\5---------------5h7---7/9-|-(9)---7\5---------5-------5------7-|
D|-------------7-(7)-----7-------------|-----------7-(7)-----7-------7------|
A|-------------------------------------|------------------------------------|
E|-------------------------------------|------------------------------------|

      your aimed at me but your shootin' blanks
e|------------------0-(0)--0-----------|------------------------------------|
B|-------8-----------------------6-----|-----8------------------------------|
G|-(7/9)---7\5---------------5h7---7/9-|-(9)---7\5-------5-------5--------7-|
D|-------------7-(7)-----7-------------|-----------7-(7)-----7-------7------|
A|-------------------------------------|------------------------------------|
E|-------------------------------------|------------------------------------|

  and it doesnt hurt thanks but no thanks               but its a matter of
                         					        F
e|------------------0-(0)--0-----------|---------------------------------1-|
B|-------8-----------------------6-6/8-|-(8)-8---------------------------1-|
G|-(7/9)---7\5---------------5h7---7/9-|-(9)---7\5-----------------------2-|
D|-------------7-(7)-----7-------------|-----------7-(7)--7---7---7------3-|
A|-------------------------------------|---------------------------------3-|
E|-------------------------------------|-----------------------------------|
                                                                 (end Verse)
Chorus:
   time           till you get yours and I    get    mine  it might not be 
   F                          G     Am                          C
e|-(1)-1----------------------------5-|-(5)--------------------------------|
B|-(1)-1-x-1-1-1-x--1-1-1-----------5-|-(5)-5-x-5-5-5-x-5-5-5-x-5-(5)-5-(5)|
G|-(2)-2-x-2-2-2-x--2-2-2-x-x-------5-|-(5)-5-x-5-5-5-x-5-5-5-x-5-(5)-5-(5)|
D|-(3)-3-x-3-3-3-x--3-3-3-x-x-5-5-x-7-|-(7)-7-x-7-7-7-x-7-7-7-x-5-(5)-5-(5)|
A|-(3)-3-x-3-3-3-x--3-3-3-x-x-5-5-x-7-|-(7)-7-x-7-7-7-x-7-7-7-x------------|
E|----------------------------3-3-x-5-|-(5)-5---5-5-5---5-5-5--------------|

   me...                           but your gonna answer  to somebody
   Dm
e|-5-5---5-5-5-----5-5---5-5-5-----------|-1-(1)-------------3-(3)------5-|
B|-6-6-x-6-6-6-x-5-6-6-x-6-6-6-x---------|-1-(1)-------------3-(3)------5-|
G|-7-7-x-7-7-7-x-5-7-7-x-7-7-7-x---2-----|-2-(2)---2---5-5-x-4-(4)------5-|
D|-7-7-x-7-7-7-x-5-7-7-x-7-7-7-x-x-3-----|-3-(3)---3---5-5-x-5-(5)------7-|
A|-5-5-x-5-5-5-x-5-5-5-x-5-5-5-x-x-3-----|-3-(3)---3---5-5-x-5-(5)------7-|
E|-------------------------------x-1-----|-1-(1)---1---3-3-x-3-(3)------5-|


   revolver                      revolver
 
e|-(5)-------------------------------|--------------------------------------|
B|-(5)-5-----5-5-----5-5-------5-6-5-|-(5)-5-----5-5-----------x------------|
G|-(5)-5-x-x-5-5-x-x-5-5-x-x-5-5-7-5-|-(5)-5-x-x-5-5-x-x-10-10-x-10(10)---7-|
D|-(7)-7-x-x-7-7-x-x-7-7-x-x-7-5-7-5-|-(5)-7-x-x-7-7-x-x-10-10-x-10(10)-----|
A|-(7)-7-x-x-7-7-x-x-7-7-x-x-7-5-5-5-|-(5)-7-x-x-7-7-x-x-8--8--x-8-(8)--x\--|
E|-(5)-5-x-x-5-5-x-x-5-5-x-x-5-------|-----5-x-x-5-5-x-x-8--8----8-(8)------|
								 (end chorus)

  you've got one foot in your mouth  and one foot in the grave         
e|------------------0-(0)--0-----------|------------------------------------|
B|-------8-----------------------6-----|-----8------------------------------|
G|-(7/9)---7\5---------------5h7---7/9-|-(9)---7\5-------5-------5--------7-|
D|-------------7-(7)-----7-------------|-----------7-(7)-----7-------7------|
A|-------------------------------------|------------------------------------|
E|-------------------------------------|------------------------------------|
    
   you were digging a hole, now your digging a cave
e|------------------0-(0)--0-----------|-----------------0------0-----------|
B|-------8-----------------------6-6/8-|-(8)-8------------------------------|
G|-(7/9)---7\5---------------5h7---7/9-|-(9)---7\5---------5-------5------7-|
D|-------------7-(7)-----7-------------|-----------7-(7)-----7-------7------|
A|-------------------------------------|------------------------------------|
E|-------------------------------------|------------------------------------|

   it's not gonna be so funny anymore
e|------------------0-(0)--0-----------|------------------------------------|
B|-------8-----------------------6-----|-----8------------------------------|
G|-(7/9)---7\5---------------5h7---7/9-|-(9)---7\5-------5-------5--------7-|
D|-------------7-(7)-----7-------------|-----------7-(7)-----7-------7------|
A|-------------------------------------|------------------------------------|
E|-------------------------------------|------------------------------------|

  by the time you wake up, sobbered up and sore          but its a matter of
                         					        F
e|------------------0-(0)--0-----------|---------------------------------1-|
B|-------8-----------------------6-6/8-|-(8)-8---------------------------1-|
G|-(7/9)---7\5---------------5h7---7/9-|-(9)---7\5-----------------------2-|
D|-------------7-(7)-----7-------------|-----------7-(7)--7---7---7------3-|
A|-------------------------------------|---------------------------------3-|
E|-------------------------------------|-----------------------------------|
                                                                 (end Verse)
Chorus:
   time           till you get yours and I    get    mine  it might not be 
   F                          G     Am                          C
e|-(1)-1----------------------------5-|-(5)--------------------------------|
B|-(1)-1-x-1-1-1-x--1-1-1-----------5-|-(5)-5-x-5-5-5-x-5-5-5-x-5-(5)-5-(5)|
G|-(2)-2-x-2-2-2-x--2-2-2-x-x-------5-|-(5)-5-x-5-5-5-x-5-5-5-x-5-(5)-5-(5)|
D|-(3)-3-x-3-3-3-x--3-3-3-x-x-5-5-x-7-|-(7)-7-x-7-7-7-x-7-7-7-x-5-(5)-5-(5)|
A|-(3)-3-x-3-3-3-x--3-3-3-x-x-5-5-x-7-|-(7)-7-x-7-7-7-x-7-7-7-x------------|
E|----------------------------3-3-x-5-|-(5)-5---5-5-5---5-5-5--------------|

   me...                           but your gonna answer  to somebody
   Dm
e|-5-5---5-5-5-----5-5---5-5-5-----------|-1-(1)-------------3-(3)------5-|
B|-6-6-x-6-6-6-x-5-6-6-x-6-6-6-x---------|-1-(1)-------------3-(3)------5-|
G|-7-7-x-7-7-7-x-5-7-7-x-7-7-7-x---2-----|-2-(2)---2---5-5-x-4-(4)------5-|
D|-7-7-x-7-7-7-x-5-7-7-x-7-7-7-x-x-3-----|-3-(3)---3---5-5-x-5-(5)------7-|
A|-5-5-x-5-5-5-x-5-5-5-x-5-5-5-x-x-3-----|-3-(3)---3---5-5-x-5-(5)------7-|
E|-------------------------------x-1-----|-1-(1)---1---3-3-x-3-(3)------5-|

[ Tab from: http://www.guitartabs.cc/tabs/d/donnas/revolver_tab.html ]
   revolver                     
 
e|-(5)-------------------------------|-------------------------------------|
B|-(5)-5-----5-5-----5-5-------5-6-5-|-(5)-5-----5-5-----5-(5)-x--3-1-(1)--|
G|-(5)-5-x-x-5-5-x-x-5-5-x-x-5-5-7-5-|-(5)-5-x-x-5-5-x-x-5-(5)-x--2-0-(0)--|
D|-(7)-7-x-x-7-7-x-x-7-7-x-x-7-5-7-5-|-(5)-7-x-x-7-7-x-x-7-(7)-x--0-0-(0)--|
A|-(7)-7-x-x-7-7-x-x-7-7-x-x-7-5-5-5-|-(5)-7-x-x-7-7-x-x-7-(7)-x-----------|
E|-(5)-5-x-x-5-5-x-x-5-5-x-x-5-------|-----5-x-x-5-5-x-x-5-(5)-------------|
								(end chorus)

   I left my comebacks at the door       I didnt know what I was in for                          
e|-------------------------------------|------------------------------------|
B|-1-(1)-1-1-1-1-1-1-1-1-1-1-1-3-1-(1)-|-1-(1)-1-1-1-1-1-1-1-1-1-1-1-3-1-(1)|
G|-2-(2)-2-2-2-2-2-2-2-2-2-2-2-2-0-(0)-|-2-(2)-2-2-2-2-2-2-2-2-2-2-2-2-0-(0)|
D|-3-(3)-3-3-3-3-3-3-3-3-3-3-3-0-0-(0)-|-3-(3)-3-3-3-3-3-3-3-3-3-3-3-0-0-(0)|
A|-3-(3)-3-3-3-3-3-3-3-3-3-3-3---------|-3-(3)-3-3-3-3-3-3-3-3-3-3-3--------|
E|-1-(1)-------------------------------|-1-(1)------------------------------|


  your deeper than you've ever been before,   your deeper than you've ever...
e|----------------------------------------|---------------------------------|
B|-1-(1)-1-1-1-1-1-1-1-1-1-1-1-1-1-1-1----|------------------------x--------|
G|-2-(2)-2-2-2-2-2-2-2-2-2-2-2-2-2-2-2----|------6-------6-7-7-7-7-x--------|
D|-2-(2)-2-2-2-2-2-2-2-2-2-2-2-2-2-2-2----|------5-------5-7-7-7-7-x---7-5--|
A|-0-(0)-0-0-0-0-0-0-0-0-0-0-0-0-0-0-0----|--4-7---7-4-7---5-5-5-5-x---7-5--|
E|----------------------------------------|----------------------------5-3--|

Solo:
(Lead Guitar Below)
e|-------------------------------------|------------------------------------|
B|-------------------------------------|------------------------------------|
G|-------------------------------------|------------------------------------|
D|-3-(3)-3-x-3-3-3-x-3-3-3-x-x-5-5-----|-3-(3)-3-x-3-3-3-x-3-3-3-x-x-5-5----|
A|-3-(3)-3-x-3-3-3-x-3-3-3-x-x-5-5-----|-3-(3)-3-x-3-3-3-x-3-3-3-x-x-5-5----|
E|-1-(1)-1-x-1-1-1-x-1-1-1-x-x-3-3-----|-1-(1)-1-x-1-1-1-x-1-1-1-x-x-3-3----|

e|-------------------------------------|------------------------------------|
B|-------------------------8---------5-|------------------------------------|
G|-----------------5-7-7<9---9>7p5-----|------------------------------------|
D|--------------/7-----------------7---|-7~~~~~~~~~~~~----------------------|
A|-------------------------------------|--------------------3-5-5/7-5\3-5---|
E|-------------------------------------|-----------------/5---------------3-|



e|-----------------------------------|--------------------------------------|
B|-1-(1)-1---1-1-1---1-1-1-----------|--------------------------------------|
G|-2-(2)-2-x-2-2-2-x-2-2-2-x-x-------|--------------------------------------|
D|-2-(2)-2-x-2-2-2-x-2-2-2-x-x-7-5---|-3-(3)-3-x-3-3-3-x-3-3-3-x-x-5-5------|
A|-0-(0)-0-x-0-0-0-x-0-0-0-x-x-7-5---|-3-(3)-3-x-3-3-3-x-3-3-3-x-x-5-5------|
E|-----------------------------5-3---|-1-(1)-1-x-1-1-1-x-1-1-1-x-x-3-3------|

e|-----------------------------------|--------------------------------------|
B|-----------------------------------|---------5---(5)----------------------|
G|-----------------------------------|-5-(5)---5---(5)---5--5---5-7-7<9>7p5-|
D|-----------------------------------|-5-(5)---5h7-(7)---5--5---------------|
A|----------------------3---3h5/7----|-------7---------7---7--7-------------|
E|-3h5---3~~--0-3-0-3h5---5----------|--------------------------------------|



e|--------------------------------------|-----------------------------------|
B|--------------------------------------|-1-(1)-1---1-1-1---1-1-1---1-1-1-x-|
G|--------------------------------------|-2-(2)-2-x-2-2-2-x-2-2-2-x-2-2-2-x-|
D|-3-(3)-3-x-3-3-3-x-3-3-3-x-x-5-5------|-2-(2)-2-x-2-2-2-x-2-2-2-x-2-2-2-x-|
A|-3-(3)-3-x-3-3-3-x-3-3-3-x-x-5-5------|-0-(0)-0-x-0-0-0-x-0-0-0-x-0-0-0-x-|
E|-1-(1)-1-x-1-1-1-x-1-1-1-x-x-3-3------|-----------------------------------|

e|----------------------------------------|-----------5-----------5---------|
B|----------------------------------------|---------5---8-5-----5---8-5-----|
G|-7p5---5------5-7-7<9>7p5-7p5---7<9>7p5-|-7<9-(9)---------7<9---------7<9-|
D|-----7---7~-7-----------------7---------|---------------------------------|
A|----------------------------------------|---------------------------------|
E|----------------------------------------|---------------------------------|




e|-------------------------------------------------|
B|-1-(1)-------------------------------------------|
G|-2-(2)-------------------------------------------|
D|-2-(2)-------------------------------------------|
A|-0-(0)-------------------------------------------|
E|-------------------------------------------------|
   PM
e|-------------------------------12----15<17>15-12-|
B|-------------------13----13-15----13-------------|
G|-------12----12-14----14-------------------------|
D|-12-14----14-------------------------------------|
A|-------------------------------------------------|
E|-------------------------------------------------|


Verse 3:
  you've got one foot in your mouth  and one foot in the grave
e|------------------0-(0)--0-----------|-------------------------------5-|
B|-------8-----------------------6-----|-----8---------------------------|
G|--7/9----7\5---------------5h7---7/9-|-(9)---7\5-------5-------5-------|
D|-------------7-(7)-----7-------------|-----------7-(7)-----7-------7---|
A|-------------------------------------|---------------------------------|
E|-------------------------------------|---------------------------------|
                         
e|------15-----------------------------|
B|-/17-----\15-13----------------------|
G|----------------14~~~~~~~~~----------|
D|-------------------------------------|
A|-------------------------------------|
E|-------------------------------------|(End Lead Guitar)


  you were digging a hole, now your digging a cave       but it's a matter of      
e|-(5)--------------0-(0)---0--------5-|-(5)------------------------------1-|
B|----5--------------------------6-----|-----5----------------------------1-|
G|------7p5------------------5h7---7---|-------7p5------------------------2-|
D|----------7-(7)--------7-------------|-----------7-(7)------------------3-|
A|-------------------------------------|----------------------------------3-|
E|-------------------------------------|------------------------------------|

Chorus:
   time           till you get yours and I    get    mine  it might not be 
   F                          G     Am                          C
e|-(1)-1----------------------------5-|-(5)--------------------------------|
B|-(1)-1-x-1-1-1-x--1-1-1-----------5-|-(5)-5-x-5-5-5-x-5-5-5-x-5-(5)-5-(5)|
G|-(2)-2-x-2-2-2-x--2-2-2-x-x-------5-|-(5)-5-x-5-5-5-x-5-5-5-x-5-(5)-5-(5)|
D|-(3)-3-x-3-3-3-x--3-3-3-x-x-5-5-x-7-|-(7)-7-x-7-7-7-x-7-7-7-x-5-(5)-5-(5)|
A|-(3)-3-x-3-3-3-x--3-3-3-x-x-5-5-x-7-|-(7)-7-x-7-7-7-x-7-7-7-x------------|
E|----------------------------3-3-x-5-|-(5)-5---5-5-5---5-5-5--------------|

   me...                           but your gonna answer  to somebody
   Dm
e|-5-5---5-5-5-----5-5---5-5-5-----------|-1-(1)-------------3-(3)------5-|
B|-6-6-x-6-6-6-x-5-6-6-x-6-6-6-x---------|-1-(1)-------------3-(3)------5-|
G|-7-7-x-7-7-7-x-5-7-7-x-7-7-7-x---2-----|-2-(2)---2---5-5-x-4-(4)------5-|
D|-7-7-x-7-7-7-x-5-7-7-x-7-7-7-x-x-3-----|-3-(3)---3---5-5-x-5-(5)------7-|
A|-5-5-x-5-5-5-x-5-5-5-x-5-5-5-x-x-3-----|-3-(3)---3---5-5-x-5-(5)------7-|
E|-------------------------------x-1-----|-1-(1)---1---3-3-x-3-(3)------5-|


   revolver                                                       revolver
e|-(5)-------------------------------|-----------------------------------|
B|-(5)-5-----5-5-----5-5-------5-6-5-|-(5)-5-----5-5-----5-5-------5-6-5-|
G|-(5)-5-x-x-5-5-x-x-5-5-x-x-5-5-7-5-|-(5)-5-x-x-5-5-x-x-5-5-x-x-5-5-7-5-|
D|-(7)-7-x-x-7-7-x-x-7-7-x-x-7-5-7-5-|-(5)-7-x-x-7-7-x-x-7-7-x-x-7-5-7-5-|
A|-(7)-7-x-x-7-7-x-x-7-7-x-x-7-5-5-5-|-(5)-7-x-x-7-7-x-x-7-7-x-x-7-5-5-5-|
E|-(5)-5-x-x-5-5-x-x-5-5-x-x-5-------|-----5-x-x-5-5-x-x-5-5-x-x-5-------|


e|-----------------------------------|-----------------------------------|
B|-(5)-5-----5-5-----5-5-------5-6-5-|-(5)-5-----5-5-----1-1---1-(1)-----|
G|-(5)-5-x-x-5-5-x-x-5-5-x-x-5-5-7-5-|-(5)-5-x-x-5-5-x-x-2-2-x-2-(2)-----|
D|-(5)-7-x-x-7-7-x-x-7-7-x-x-7-5-7-5-|-(5)-7-x-x-7-7-x-x-3-3-x-3-(3)-----|
A|-(5)-7-x-x-7-7-x-x-7-7-x-x-7-5-5-5-|-(5)-7-x-x-7-7-x-x-3-3-x-3-(3)-----|
E|-----5-x-x-5-5-x-x-5-5-x-x-5-------|-----5-x-x-5-5-x-x-1-1-x-1-(1)-----|
(Lead Guitar)
e|-----------------------------------|-------------------------1-(1)-----|
B|---/8-8-8-8\-----------------------|-------------------------1-(1)-----|
G|---/7-7-7-7\-----------------------|-------------------------2-(2)-----|
D|-----------------------------------|-------------------------3-(3)-----|
A|-----------------------------------|-------------------------3-(3)-----|
E|-----------------------------------|-----------------------------------|


| /  slide up
| \  slide down
| h  hammer-on
| p  pull-off
| ~  vibrato
| +  harmonic
| x  Mute note
| () Let Ring
| <  Bend
| >  Release Bend
| PM Palm Mute
=============================================================================
Comments