Donnas - It's So Hard Chords & Tabs

 

It's So Hard Chords & Tabs

Donnas Chords & Tabs

Version: 1 Type: Tab 0 ratings
1 star 2 stars 3 stars 4 stars 5 stars
comments

It's So Hard Tab

   
Song: It's So Hard
By: The Donnas

Note: Use mild distortion
Tabbed by Geetarman for personal use only.


Intro Progression: (It’s the same for the verses too)

   E   E          Asus    A     D slide E  E          
e|--12--12-----------------------10-/--12--12--
B|--12--12---------15------14----10-/--12--12--
G|--13--13---------14------14----11-/--13--13--
D|--14--14--14h16--16--16--14----12-/--14--14--
A|--14--14-----------------------12-/--14--14--
E|--12--12-----------------------10-/--12--12--
[ Tab from: http://www.guitartabs.cc/tabs/d/donnas/its_so_hard_tab.html ]
  E   E          Asus    A     G     G   G  
--12--12-----------------------10----10--10---|
--12--12---------15------14----12----12--12---|
--13--13---------14------14----12----12--12---|
--14--14--14h16--16--16--14----12----12--12---|
--14--14-----------------------10----10--10---|
--12--12-----------------------10----10--10---| (repeat twice)


Chorus Progression: 

E|----------------------------------------------------------------------
B|----------------------------------------------------------------------
G|--------------------------------------0--0----------------------------
D|----------------------------0-0-2-2-3------3-3-2-2-0------------------
A|-----------------0-0-2-3--3--------------------------3--3-1-1-0-0-----
E|--3--2--1--1-3-3--------------------------------------------------3-1-

-----------------------------------------------------------------------|
-----------------------------------------------------------------------|
-----------------------------------------------------------------------|
-------------------0-0-------------------------------------------------|
--------0-0-2-3--3-----3-3-1-1-----------------------------------------|
--1-3-3----------------------------------------------------------------|
Comments