Donnas - Dont Break Me Down Chords & Tabs

 

Dont Break Me Down Chords & Tabs

Donnas Chords & Tabs

Version: 1 Type: Bass Tab 0 ratings
1 star 2 stars 3 stars 4 stars 5 stars
comments

Dont Break Me Down Bass Tab

Bass

G----------------------------------------------12-12--------|
D----------------12-12--------------------------------14----|
A----------14----------14--------------14-------------------|
E---12-12---------------------12-12-------------------------|

[ Tab from: http://www.guitartabs.cc/tabs/d/donnas/dont_break_me_down_btab.html ]
and i promise....
G-----------------------------------------------------------|
D---------------12-12---------------------------------------|
A----------14-----------14-------------------------3-3-3-3--|
E--12-12----------------------0-0-0-0-0----3----------------|

G-----------------------------------------------------------|
D-----------------------------------------------------------|
A-3-3-3-3-3-3-3-3----------3-3-3-3-3-3-3-3-3-3-3-3---5------|
E--------------------------3--------------------------------|

dont break me down......
G--------------------------|
D--------------------------|
A--------------------------|
E-0-0-0-0-0-0-0-0-0-0-0-0--|etc.............................
Comments