Donna Lewis - At The Beginning Chords & Tabs

 

At The Beginning Chords & Tabs

Donna Lewis Chords & Tabs

Version: 1 Type: Tab 0 ratings
1 star 2 stars 3 stars 4 stars 5 stars
comments

At The Beginning Tab

   
Song: At The Beginning
Artist:Donna Lewis and Richard Marx
Tabbed by:Joery Duco

This song was used to be our Graduation Song
In Lagao National High School, General Santos City Batch '03-'04
High to all my classmates there....
I Also dedicate this to Rhoanne...
|-5-5-5-7-9-9/11---5-7-9-5---|
|--------------------------6-|
|--------------------------5-|
|----------------------------|
|----------------------------|
|----------------------------|

|-5-5-5-7-9-9/11---5-7-9-5---|
|--------------------------5-|
|--------------------------4-|
|----------------------------|
|----------------------------|
|----------------------------|

verse 1:

   C            Am         Bb          G
We were strangers starting out on a journey
C                 Am         F        G
Never dreaming what we'd have to go through
Am    G       C           Am          F
Now here we are and I'm suddenly standing
Bb      Gsus4        G
At  the Beginning with you


D            Bm        C           A
No one told me I was going to find you
D           Bm           G         A
Unexpected what you did to my heart
Bm     A     D       Bm           G
When I lost hope you were there to remind me
C     Asus4    A
This is the start

Chorus:
   
    D
And Life is a road and I wanna keep going
   G
Love is a river I wanna keep flowing
   Bm                       A            B
Life is a road now and forever wonderful journey
   D
I'll be there when the world stops turning
   G
I'll be there when the storm is through
   Bm
In the end I wanna be standing
G         A          D
At the beginning with you


|-5-7-9-9/11---5-12-10-9-7---|
|----------------------------|
|----------------------------|
|----------------------------|
|----------------------------|
|----------------------------|

verse 2:Same Chords
[ Tab from: http://www.guitartabs.cc/tabs/d/donna_lewis/at_the_beginning_tab.html ]
We were strangers on a crazy adventure
Never dreaming how our dreams would come true
Now here we stand unafraid of the future
At the Beginning with you

Chorus 2: Same chords

And Life is a road and I wanna keep going
Love is a river I wanna keep flowing
Life is a road now and forever wonderful journey
I'll be there when the world stops turning
I'll be there when the storm is through
In the end I wanna be standing
At the Beginning with you

|-10/12^-11-10-8---|
|--9/11^-10-9--7---|
|------------------|
|------------------|
|------------------|
|------------------|

G
Knew there was somebody somewhere


|-10/12-10-8h108---|
|--9/11--9-7h107---|
|------------------|
|------------------|
|------------------|
|------------------|

G                 C
Like me alone in the dark
                   Am
Now I know that dreams will live on
      F
I've been waiting so long
    Bsus4               B
Nothing's gonna tear us apart

CHORUS 3:

E
And Life is a road and I wanna keep going
   A
Love is a river I wanna keep flowing
   C#m                 B               A
Life is a road now and forever wonderful journey
   E
I'll be there when the world stops turning
   A
I'll be there when the storm is through
   C#m
In the end I wanna be standing
A         B         E
At the beginning with you

(chorus 'life is a road')

|-5-5-5-7-9-9/11---5-7-9-5---|
|--------------------------6-|
|--------------------------5-|
|----------------------------|
|----------------------------|
|----------------------------|

|-5-5-5-7-9-9/11---5-7-9-5--6--2-|
|---------------------------5--3-|
|------------------------------2-|
|--------------------------------|
|--------------------------------|
|--------------------------------|

For more info, suggestions, comments about me and 
my song, just e-mail me at Joery_brinch@yahoo.com
Thanks!

     /lllllll	       /llll
     /llllllll	       /llll
     /111///lll	       /llll
     /lll  /lll	       /llll
     /llllllll	       /llll
     /llllllll  /lll   /1lll
     /lll///lll	/lll   /1lll
     /lll  //lll/lll   /lll1
     /lll   /llll/lllllllll
     ////   ////  /////////
Comments