Donaghy Siobhan - Overrated Chords & Tabs

 

Overrated Chords & Tabs

Donaghy Siobhan Chords & Tabs

Version: 1 Type: Chords 0 ratings
1 star 2 stars 3 stars 4 stars 5 stars
comments

Overrated Chords

   
Overrated

by Siobhan Donaghy 

redhead and ex-singer of the sugarbabes - very nice song


transcribed by Christian Reindel(creindel@gmx.de)
any questions or corrections- e-mail me

Normal tuning - capo on 4.fret

pattern and strumming is your turn

 
Intro - verse

    A      Am        A 
E:|-0-0--0-0--0-0-0--0------|
B:|-0-0--0-1--1-1-1--0------|
G:|-2-2--2-2--2-2-2--2------|
D:|-2-2--2-2--2-2-2--2------|
A:|-0-0--0-0--0-0-0--0------|
E:|-------------------------|

chorus - outro

    A          Am      Fis      Fm    
E:|-0----------0----------------0---------|
B:|-0----------1-------0---3----1---------|
G:|-2----------2-------4---4----2---------|
D:|-2----------2-------4---4----3---------|
A:|-0----------0-------4---4----3---------|
E:|--------------------2---2----1---------|
[ Tab from: http://www.guitartabs.cc/tabs/d/donaghy_siobhan/overrated_crd.html ]
Interlude 

     D         Am        G        Am
E:|--2----------0--------0--------0-------|
B:|--3----------1--------3--------1-------|
G:|--2----------2--------0--------2-------|
D:|--0----------2--------0--------2-------|
A:|-------------0--------2--------0-------|
E:|----------------------3----------------|

     D         Am        G       Eb
E:|--2----------0--------0--------3-------|
B:|--3----------1--------3--------3-------|
G:|--2----------2--------0--------3-------|
D:|--0----------2--------0--------1-------|
A:|-------------0--------2----------------|
E:|----------------------3----------------|


For Bassplayers the chords without capo:

Intro/verse

Cis

Chorus/outro

Cis   Ais   A


Interlude

Fis  Cis  B   Cis

Fis  Cis  B   G


end.
Comments