Don Ross - Blue Finger Chords & Tabs

 

Blue Finger Chords & Tabs

Don Ross Chords & Tabs

Version: 1 Type: Tab 0 ratings
1 star 2 stars 3 stars 4 stars 5 stars
comments

Blue Finger Tab

   
Song: Bluefinger (Don Ross Version)

Tabber (A.K.A Remodifier): Ian Ng
          
Tuning - Standard (EADGBE)


Legend:   H = hammer on      .
          P = pull off       . = Section Divider (Read NUmbers To Follow)
          x = slap           .
           = harmonic
           = harmonic slap  
           = bend    .| = Repeat Till Next Number (Works With Section Divider)

          ^
          l = strum (Specific numbers)   || = End Of Bar
          l 

   *Tabs may be hard to read without knowing how the song sounds like...
   *Download it! Don Ross - Bluefinger... 
   *Have Fun!

   ***Special Thanks To Don Ross for writting this song so that I can listen to it and tab it!***

          
Roadmap = [ A - No (A) ] [B] [A - With (A)] [B] [***] [C] [***] [D] [***] [A] [B] [***] [*** + (3)]
          
      


          (A)
         |------------------------------------------------------------| ||
         |------------------------------------------------------------|.||
         |------------------------------------------------------------| ||
         |(2)---------------------------------------------------1-2---| ||
   (a)-->|------(7-5)-(5-4)-(4-3)-(3)----24-----------1--2---2-------|.||
         |-0-----0-4---45---56---67-------0-3---2-4----------------| ||
                   H                           H                  H


 
 (B)						       (1)                 (2)
|----------0-3----65357---6------0-----0------------.-------------------|----3--0------||
|----0---3-------------------10-8-----8--------9------.------------0-----.|-2--3--0------||
|---3---------------------------------------9--9------.-23-2-0-2--------|-3--2--1------||
|-------------------------------------------11-11-----.--------------1-2--|--------------||
|--------------0--------------------------------------.------1---2-------.|----2---------|| 
|-0----4-----------------6----------7-----9------0-2--.-2-----------------|-------0-3-0-||



[ Tab from: http://www.guitartabs.cc/tabs/d/don_ross/blue_finger_tab.html ]
 (***)                                           (1)                  (2)
|-0--0--0-------------0-------0-^-3--5---5-3----.----------0---------|--7-^--10--8-7-----------||
|-0--0--2-------0-2-----------0-l-3--5---5-3----.----0-2------------.|----l----------10-8------||
|-1--1--3--3--0---------------1-l---------------.--2-----------------|--8-l---------------8---||
|----2-----2--------1-----2---2-l----0--------0-.--------1-----------|----l-----------------9--||
|---------------2-------------------------------.----2--------------.|----l--------------------||
|-------2---------------0---0----------2--------.------------0-3-0--|--7-l--------------------||




 (C)                               (1)                                     (2)
|---242---2---------------0----.-------0-------0-------0-----------0--|-----0-------0-------3--0-------||
|---353---3---12-12---2------.-------0---0-2-------2-------0-2-----.|-----0---0-2------2--3--0-------||
|-----------------12-12---0------.---0-1---------------3----------------|-0-1--------------3--2--1-------||
|-------------------------------0--.-2---H---0---------------2-------1----|-2-H---0-------3----------------||
|---------------0---------1--------.-H---------------3-----------2-------.|-H-------------------2----------||
|-0---------4----------------------.-----0-------4-------2----------------|---0-------4------2-----0--3-0-||




 (D)          				              (1)                (2)
|----12----7----5-----------------------------0----.---0-----------0--|-----3--0------||
|----12----7----5--------------------0------2------.-2-------0-2-----.|--2--3--0------||
|-------------------------------------1---------------.-3-----0----------|--3--2--1------||
|---------------------------------------2----------3--.-----2-------1----|---------------||
|--------------0------0-1-0---0-----------------------.---------2-------.|-----2---------||
|-0------4--------------H-P-3----3-0--------4---------.-2----------------|--2-----0-3-0-||




 (***) (3) [End]  >>Start to slow down>>                   
|-0-^--3--5---5--3--------------0-----0-------0--------0---3--||
|-0-l--3--5---5--3------------0---0--------------------2---3--||
|-1-l--------------0---01-----------3---3-2-----1------1---2--||
|-2-l-----0-------------H------------------------------2---0--||
|-----------------------------5-----4-----3-----2------2---2--||
|-----------2--------0-0---0------0-----0---0---0--0---0---0--||

Aron Rocks!
Comments