Dolby Thomas - I Scare Myself Chords & Tabs

 

I Scare Myself Chords & Tabs

Dolby Thomas Chords & Tabs

Version: 1 Type: Bass Tab 0 ratings
1 star 2 stars 3 stars 4 stars 5 stars
comments

I Scare Myself Bass Tab

Thomas Dolby - I scare myself

I think that the bass is performed by a contrabass.
It would be really nice if someone tabs the guitarpart.

the main line:
G |-----------------------
D |-----------------------
A |----3-3-------4-4------
E |-1------(1)-2-----(2-4)

and when I'm running (1:21)
G |------8-8-8----------------8-7-------------8-8-----8/---
D |--------------------------------------------------------
A |-4-ring---------4/---3---3------6-5-4--/6--------------
E |---2----------2----1---1------------------------/6------

after "voodoo" (2:00)
G |------8-8-8-6----8/---------8-7-6---------8-8-8------8/-
D |---/8---------/8-----------------------/8---------/8----
A |-4--------------------3---3-------6-4-----------4-------
E |--------------------1---1-------------------------------
[ Tab from: http://www.guitartabs.cc/tabs/d/dolby_thomas/i_scare_myself_btab.html ]
what can I do?
G |---------------------------------------------------------------------
D |---------------------------------------------------------------------
A |-3--3-3--3-4--4-4--4-3--3-3--3-2--2-2--2-3--3-3--3-6--6-3--3-3---4-4-
E |---------------------------------------------------------------2-----

back to the main line

at 2:49 change to
G |----------------------------
D |----------------------------
A |-3------3------4------4-----
E |---1-1----1-1----2-2----2-2-

3:11 back to the main line

3:41
G |------8-8-8-6----8/---------8-7-6---------8-8-8-6-----8/-
D |---/8---------/8-----------------------/8----------/8----
A |-4--------------------3---3---------4--------------------
E |--------------------1---1--------------------------------

G |-------------------------
D |-3-3---3--3---4----4--4--
A |-----3---3-3-----4---4-4-
E |-------------------------

4:51 main line. fade out.

submitted by dION (kantongerecht@hotmail.com)
Comments