Dokken - Mr.scary Live Chords & Tabs

 

Mr.scary Live Chords & Tabs

Dokken Chords & Tabs

Version: 1 Type: Tab 0 ratings
1 star 2 stars 3 stars 4 stars 5 stars
comments

Mr.scary Live Tab

   
Mr.Scary live
George Lynch



  C#5B5 A5 E5                 N.C.(F#)
 
  Gtr I
  ~~~~~                           PM--------|   PM|   PM|
|-------------|------------||---------------------------------|
|-------------|------------||---------------------------------|
|-6--4--2-----|------------||---------------------------------|
|-6--4--2--2--|-(2)--------||-----------------4-----5-----2h4-|
|-4--2--0--2--|-(2)--------||---------------------------------|
|----------0--|-(0)--------||-0h2-2-2-2-2-2-2---2-2---2-2-----|


  PM------------|
|---------------------------------|
|---------------------------------|
|---------------------------------|
|---------------------------------|
|-----------------5-4-2---4-2-----|
|-2-2-2-2-2-2-2-2-------5-----5-4-|


                                    5/8
    PM|   PM|     PM------------|
|---------------------------------||-------------||
|---------------------------------||-------------||
|---------------------------------||-------------||
|-4-----5-----2h4-----------------||-------------||
|---------------------------------||-5s4-1s2s4s7-||
|---2-2---2-2-----2-2-2-2-2-2-2-2-||-------------||


 
      PM--------|   PM|   PM|       PM------------|
|---------------------------------|-----------------------------------|
|---------------------------------|-----------------------------------|
|---------------------------------|-----------------------------------|
|-----------------4-----5-----2h4-|-----------------------------------|
|---------------------------------|-----------------5-4-2---4-2-------|
|-0h2-2-2-2-2-2-2---2-2---2-2-----|-2-2-2-2-2-2-2-2-------5-----5-4---|


      PM--------|   PM|   PM|       PM------------|   PM--|   PM------
|---------------------------------|---------------------------------||
|---------------------------------|---------------------------------||
|---------------------------------|---------------------------------||
|-----------------4-----5-----2h4-|---------------------------------||
|---------------------------------|-----------------4-------4-------||
|-0h2-2-2-2-2-2-2---2-2---2-2-----|-2-2-2-2-2-2-2-2---5-5-5---4-4-4-||


  N.C.(F#)
 ---|   PM  PM  PM--|   PM  PM
|--------------------------------------|
|--------------------------------------|
|--------------------------------------|
|---------------------4---5---4h5p4p2--|
|-----4---5---4------------------------|
|-2-2---2---2---2-2-2---2---2----------|


  PM|   PM  PM  PM                  PM|   PM  PM  PM--|   PM  PM
|---------------------------------|-------------------------------------|
|---------------------------------|-------------------------------------|
|---------------------------------|-------------------------------------|
|---------------------------------|---------------------4---5---4h5p4p2-|
|-----4---5---4---5-4-2---4-2-----|-----4---5---4-----------------------|
|-2-2---2---2---2-------5-----5p4-|-2-2---2---2---2-2-2---2---2---------|


  PM|   PM  PM      PM--|   PM--|
|----------------------------------||
|----------------------------------||
|----------------------------------||
|----------------------------------||
|-----4---5---4---4-------4--------||
|-2-2---2---2---5---5-5-5---4-4-4--||


  N.C.(F#)
      ~~~~~~          PM------------------------|
|----------------|--------------------------------|
|----------------|--------------------------------|
|-6-x-5-(5)------|-6\-----------------------------|
|-4-x-4-(4)------|-4\-----------------------------|
|----------------|--------------------------------|
|----------------|----2-2-2-2-2-2-2-2-2-2-2-2-2-2-|


    PM~~~~~~              PM----------------|
|-----------------|------------------------------------|
|-----------------|------------------------------------|
|-6---5-(5)----7--|-5h=6----------------------------2--|
|-4-4-4-(4)----4--|-4-(4)---------------------2-3h4----|
|-----------------|------------------------------------|
|-----------------|-------2-2-2-2-2-2-2-2-2-2----------|


                   ~
|-------------------------------|--------------------------------|
|-------------------------------|--------------------------------|
|-x-4b6==(4)r(4)p2-4----4h5-4-2-|-4h5-4-2---------2--------------|
|-------------------------------|---------4-2-3h4---4p2----------|
|-------------------------------|-----------------------4-3-2p0--|
|-------------------------------|--------------------------------|


      ~~~~~~          PM------------------------|
|----------------|----------------------------------||
|----------------|----------------------------------||
|-6-x-5-(5)------|-6\-------------------------------||
|-4-x-4-(4)------|-4\-------------------------------||
|----------------|----------------------------------||
|----------------|----2-2-2-2-2-2-2-2-2-2-2-2-2-2---||


  N.C.(F#)
      PM~~~~~~              PM------|
|-------------------|--------------------16b17==(16)-(16)r(16)p|
|-------------------|------------------------------------------|
|-6-x-x-5-(5)----7--|-[5]h6-----------4------------------------|
|-4-x-x-4-(4)----4--|------------------------------------------|
|-------------------|------------------------------------------|
|-------------------|-------2-2-2-2-2--------------------------|


                                             ~~~~~~~~                                    ~~~~~~~
|-14---17p16p14--17b19==(17)r(17)----14h16-(16)-(16)--|-17p16p14-------16p14------------21-(21)--------|
|---------------------------------16------------------|----------17p14-------17p14-(14)----------------|
|----0------------------------------------------------|-------------------------------------------x\---|
|-----------------------------------------------------|-------------------------------------------x\---|
|-----------------------------------------------------|-------------------------------------------x\---|
|-----------------------------------------------------|------------------------------------------------|


                                           $
      ~~~~~~          PM      ~~~~~~
|-----------------------|------------------||
|-----4-(4)-------------|------------------||
|-6-x-5-(5)--6-x-4--2-x-|------------------||
|-4-x-4-(4)--4-x-4--2-x-|-2h4-4-(4)----x\--||
|-----------------------|-2h4-4-(4)----x\--||
|-----------------------|------------------||


    N.C.(G#)
  PM------------------|   PM|       PM----------|           PM
|---------------------------------|------------------------------------|
|---------------------------------|------------------------------------|
|---------------------------------|------------------------------------|
|---------------------------------|------------------------------------|
|-----------------------7-----4h6-|---------------7-(7)-4h6---4--------|
|-2s4-4-4-7-4-4-4-4-4-4---4-4-----|-2s4-4-4-7-4-4-4-(4)-----7---6h7----|


  PM------------------|   PM|
|--------------------------------|
|--------------------------------|
|--------------------------------|
|-----------------------------x/-|
|-----------------------7-----x/-|
|-2s4-4-4-7-4-4-4-4-4-4---4-4-x/-|


                                                                                         To Coda
   T          T          T           T           T           T           T           T
|-17p9h12s15-18p15p12s9-19p10h13s16-19p10h12p10-20p11h14s17-20p17p14s11-21p12h15s18-21p18p15s12--||
|------------------------------------------------------------------------------------------------||
|------------------------------------------------------------------------------------------------||
|------------------------------------------------------------------------------------------------||
|------------------------------------------------------------------------------------------------||
|------------------------------------------------------------------------------------------------||


  N.C.(F#)
      ~~~~~~          PM----------|   PM  PM----|
|----------------|--------------------------------|
|----------------|--------------------------------|
|-6-x-5-(5)------|-6\-----------------------------|
|-4-x-4-(4)------|-4\---------------2---2---------|
|----------------|----------------4---4---4-3-2p0-|
|----------------|----2-2-2-2-2-2-----------------|


      ~~~~~~           PM  ~
|------------------------|------------||
|------------------------|------------||
|-6-x-5-(5)--5-x-4-x-2-x-|------------||
|-4-x-4-(4)--4-x-4-x-2-x-|-4------x\--||
|------------------------|-4------x\--||
|------------------------|--------x\--||


  $$
  E5      B/Eb                 D5      C#
                PM------|              ~~~~~~PM--|
|----------------------------|---------------------5\-|
|---------------------7------|---------------------5\-|
|-------------------8---8----|---------------x-x-x----|
|-9-9-(9)-9-(9)---9-------9--|-7-7-(7)-------x-x-x----|
|-7-7-(7)-6-(6)-6------------|-5-5-(5)-4-(4)----------|
|----------------------------|------------------------|


  N.C.(F#)
  PM|   PM  PM------|   PM  PM          PM|   PM  PM------------------|
|-------------------------------------|---------------------------------|
|-------------------------------------|---------------------------------|
|-------------------------------------|---------------------------------|
|---------------------4---5---4h5p4p2-|---------------------------------|
|-----4---5---------------------------|-----4---5-----------------------|
|-2-2---2---2-2-2-2-2---2---2---------|-2-2---2---2-2-2-2-2-2-2-2-2-2-2-|


                                        To Dbl. Coda
  E5      B/Eb              D5      C#      B5
                PM----|             ~~~~~~PM
|-------------------------|-------------------------||
|---------------------7\--|-------------------------||
|-------------------8-----|---------------x-4-(4)-4-||
|-9-9-(9)-9-(9)---9-------|-7-7-(7)-------x-4-(4)-4-||
|-7-7-(7)-6-(6)-6---------|-5-5-(5)-4-(4)---2-(2)-2-||
|-------------------------|-------------------------||


  N.C.
  PM----------------------------|   ~            ~~~~
|---------------------------------|--------------------|
|---------------------------------|------12b14-(12)----|
|---------------------7---------7-|-6------------------|
|---------3-5-------4-------6-9---|--------------------|
|-------4-----4s5-5-----5-7-------|--------------------|
|-2s4-4---------------------------|--------------------|


                                                 N.C.(F#)
                                                 PM----| ~
|----------9-----------7---------5--------4---||----------------|
|--12b14-(12)--10b12-(10)--8b10-(8)--7b9-(7)--||-------5-4------|
|---------------------------------------------||-----6---5------|
|---------------------------------------------||-4-7------------|
|---------------------------------------------||----------------|
|---------------------------------------------||----------------|


      PM----------------------------------| ~~~~~~~~~
|---------------------------------|----------------------|
|-4s5-----------------------------|-------5-4----(4)-----|
|-5s6-----------------------------|-----6---5----(5)-5/--|
|---------------------------------|-4-7------------------|
|---------------------------------|----------------------|
|-----2-2-2-2-2-2-2-2-2-2-2-2-2-2-|----------------------|


          ~~                          T         T     T                      T
|-----------------------12h14-|-(14)-18p14p10--18p12h18b19==(18)r(18)p14p12-18p14h18b19==(18)r(18)-14-18-(18)/--------------|
|-10p9------------------------|---------------------------------------------------------------------------------17b19==(17)-|
|------9-11-(11)\-------------|---------------------------------------------------------------------------------------------|
|-----------------------------|---------------------------------------------------------------------------------------------|
|------------------x\---------|---------------------------------------------------------------------------------------------|
|------------------x\---------|---------------------------------------------------------------------------------------------|


|--------------17-14------------------------------------------|
|-(17)r(17)p14-------17p14------------------------------------|
|--------------------------17p14-16b18==(16)r(16)p14----16\---|
|----------------------------------------------------16-------|
|-------------------------------------------------------------|
|-------------------------------------------------------------|


                          D.S. al Coda &
  PM----|    PM---------|   ~
|-------------------------|------------||
|-------5-4---------------|------------||
|-----6---5--5---4--2-x-x-|------------||
|-4-7----------4----------|-4------x\--||
|-------------------------|--------x\--||
|-------------------------|--------x\--||


  N.C.(F#)
  PM----| ~            PM------------------------|
|----------------|------------------------------------|
|-------5-4------|-4s5--------------------------------|
|-----6---5------|-5s6--------------------------------|
|-4-7------------|------------------------------------|
|----------------|------------------------------------|
|----------------|-----2-2-2-2-2-2-2-2-2-2-2-2-2-2----|


                   D.S.S. al Dbl. Coda &&
  PM----|          PM|  PM  ~
|-------------------------|------------||
|-------5-4---------------|------------||
|-----6---5--5s4---4--2---|------------||
|-4-7------------x------4-|-4------x\--||
|-------------------------|--------x\--||
|-------------------------|--------x\--||


  N.C.(C#)
  PM|   PM|   PM|   PM|   PM|       PM|   PM|   PM|   PM| ~
|---------------------------------|---------------------------------|
|---------------------------------|---------------------------------|
|-----6-----4-----7-----6---------|-----6-----4-----7-----6-(6)\----|
|-----------------------------4s6-|---------------------------------|
|-4-4---4-4---4-4---4-4---4-4-2s4-|-4-4---4-4---4-4---4-4-----------|
|---------------------------------|---------------------------------|

[ Tab from: http://www.guitartabs.cc/tabs/d/dokken/mrscary_live_tab.html ]
        PM|   PM|   PM|   PM|
|---------------------------------|----------9-----------7---------5--------4---|
|---------------------------------|--12b14-(12)--10b12-(10)--8b10-(8)--7b9-(7)--|
|-----6-----4-----7-----6---------|---------------------------------------------|
|-----6-----4-----------------4s6-|---------------------------------------------|
|-2s4---4-4---4-4---4-4---4-4-2s4-|---------------------------------------------|
|---------------------------------|---------------------------------------------|


                                   N.C.(G#)
                      2/4         4/4
          ~~~~                     PM------------------|   PM|
|--------14---------||----------||------------------------------------|
|-17b19-(17)--------||-[15]\----||------------------------------------|
|-------------------||----------||------------------------------------|
|-------------------||----------||------------------------------------|
|-------------------||----------||-----------------------7-----4h6----|
|-------------------||----------||-2s4-4-4-7-4-4-4-4-4-4---4-4--------|


      PM------| ~~~~~~     PM------------------|   PM|
|------------------------|---------------------------------|
|------------------------|---------------------------------|
|------------------------|---------------------------------|
|------------------------|---------------------------------|
|---------------7-(7)----|-----------------------7-----4h6-|
|-2s4-4-4-7-4-4----------|-2s4-4-4-7-4-4-4-4-4-4---4-4-----|


  PM----------|                        PM------------------|   PM|
|-----------------------------------||---------------------------------|
|-----------------------------------||---------------------------------|
|-----------------------------------||---------------------------------|
|-----------------------------------||---------------------------------|
|-----------------------------------||-----------------------7-----4h6-|
|-2s4-4-4-7-4-4-2-(2)-2-6p2-7p2-6p2-||-2s4-4-4-7-4-4-4-4-4-4---4-4-----|


  PM----------|                       PM------------------|   PM|
|-----------------------------------|---------------------------------|
|-----------------------------------|---------------------------------|
|-----------------------------------|---------------------------------|
|-----------------------------------|---------------------------------|
|---------------7-(7)---4h6---4-----|-----------------------7-----4h6-|
|-2s4-4-4-7-4-4-------4-----7---6h7-|-2s4-4-4-7-4-4-4-4-4-4---4-4-----|


                  F#5   B5      N.C.
  PM----------|     PM|                 ~~~~~~       PM|
|----------------------------||-----------------------------|
|----------------------------||-----------------------------|
|----------------------------||-----------------------------|
|-----------------------4-4--||-[2]p1-----------------------|
|-----------------4-x-x-2-2--||-------2-4-(4)----(4)-2-2----|
|-2s4-4-4-7-4-4-0-2-x-x------||-----------------------------|


                    PM--------|           ~~~~~~~
|-------------------------------|-----------------------|
|-------------------------------|-----------------------|
|-----------------4-------------|-4---4-4-----------x/--|
|-2p1---4--4--4s6---6-5-4h5-6-6-|---6-----6--(6)-x\-x/--|
|-----4-------------------------|----------------x\-x/--|
|-------------------------------|----------------x\-----|


    PM|   PM  PM  PM    PM  PM  PM         ~~~~~~~~~~~~~~~
|---------------------------------|-----------------------------|
|---------------------------------|-----------------------------|
|-9-----9---7---7---9s8---8---8---|-9p8-------------------x-x---|
|---6-6---6-6-6---6-----4---4---4-|-----9-11-(11)----(11)-x-x---|
|---------------------------------|-----------------------------|
|---------------------------------|-----------------------------|


           ~~~~~~~      PM----------------|
|-------------------------------------------11p|
|----------------------------------------------|
|-11p9-11-11-(11)-11-9-11-12-11-9-11-11p9-9----|
|----------------------------------------------|
|----------------------------------------------|
|----------------------------------------------|


|-9---------13-------------14----------------------------------------------------------|
|---12p9s11----14p12p11s14----17p14----14h16p14h16p14---------------------------16p14--|
|-----------------------------------16----------------16p14-14h16p14h16p14-(14)--------|
|--------------------------------------------------------------------------------------|
|--------------------------------------------------------------------------------------|
|--------------------------------------------------------------------------------------|


                                                                    ~~
|---------------------------------------------------------------------||
|---------------------------------------------------------------------||
|-16p14s13h14p13-------14p13--------------14p13--------16p13h16-18-18-||
|----------------16p13-------16p14p13h16--------16-19-----------------||
|---------------------------------------------------------------------||
|---------------------------------------------------------------------||


  N.C.
      PM                              ~~~~~~~
|---------------------------------21-21-(21)-21b24-|-(21)\---------16h19s21-19-17-16h17p16s14--|
|-------19b20==(19)r(19)b21--(19)------------------|------------19-----------------------------|
|--18-x--------------------------------------------|---------x/--------------------------------|
|--------------------------------------------------|-------------------------------------------|
|--------------------------------------------------|-------------------------------------------|
|--------------------------------------------------|-------------------------------------------|


|-17p16p14-16p14----14------------------------------------------------|
|----------------17----17p14-16p14-16p14----14----14-17s18-17-16------|
|----------------------------------------16----16-----------------18\-|
|---------------------------------------------------------------------|
|---------------------------------------------------------------------|
|---------------------------------------------------------------------|


                               \0.5___/
|-------9------------9-12p9-10p9-----(9)-(9)h14p9h10-14p9h10-14p9h10p9-|
|--9h10---12-9-10-12---------------------------------------------------|
|----------------------------------------------------------------------|
|----------------------------------------------------------------------|
|----------------------------------------------------------------------|
|----------------------------------------------------------------------|


|-14p9h10p9-14p9h10p9-14p9h10p9-x-----------------------|
|-------------------------------x-12p9------------------|
|-------------------------------x------11p9-11b13-(11)--|
|-------------------------------------------------------|
|-------------------------------------------------------|
|-------------------------------------------------------|


    ~~~~           PM-------------|                     ~~~~~~~
|------------------------------------|-0-0-16-12s11--------------16h21p16h17h19---|
|-----------------------9----9-10-12-|--------------12-14-(14)--------------------|
|-(11)--11p9--x/--10------10---------|--------------------------------------------|
|-------------x/-----11--------------|--------------------------------------------|
|------------------------------------|--------------------------------------------|
|------------------------------------|--------------------------------------------|


|-21s22s21-19-17s16-16h17-16-------9h10p9h10p9--------------------------|
|----------------------------19\-9-------------12p10p9-9h10p9-----------|
|-------------------------------------------------------------11p9s8--0-|
|-----------------------------------------------------------------------|
|-----------------------------------------------------------------------|
|-----------------------------------------------------------------------|


                                  ~~~~
|-----------19-------19b21-|-(19)------------||
|--------------17----------|-----------------||
|--------------------14-------|-----------x\----||
|-----------------------------|-----------x\----||
|-4---------------------------|-----------x\----||
|-----------------------------|-----------------||


  N.C.(F#)
      ~~~~~~             PM---------------------------
|----------------|-----------------------------------|
|----------------|-----------------------------------|
|-6-x-5-(5)------|-5h=6------------------------------|
|-4-x-4-(4)------|-4-(4)-----------------------------|
|----------------|-----------------------------------|
|----------------|-------2-2-2-2-2-2-2-2-2-2-2-2-2-2-|


 -------| ~            PM----------------|
|----------------|---------------------------20b21===|
|-------5-4------|-4s5-------------------------------|
|-----6---5------|-5s6---------------------x---------|
|-4-7------------|-------------------------x---------|
|----------------|-------------------------x---------|
|----------------|-----2-2-2-2-2-2-2-2-2-2-----------|


|-(20)--(20)r(20)p18-20-(20)\-------14-17p14----|
|--------------------------------14----------14-|
|-----------------------------14----------------|
|-----------------------------------------------|
|-----------------------------------------------|
|-----------------------------------------------|


                                          ~~              ~~~~~~
|-16p14-------16-14---------------------------------|---------------------------|
|-------17-16-------17p16p14-------13-------------x-|---------------------------|
|----------------------------16p13----16-16-(16)\-x-|-6-x-5-(5)--5s4---4-(4)-2--|
|---------------------------------------------------|-4-x-4-(4)------4----------|
|---------------------------------------------------|---------------------------|
|---------------------------------------------------|---------------------------|


                    N.C.(F#)
    ~~~~~~          PM--|   ~
|----------------||----------------|
|----------------||-------2--------|
|----------------||-----2---5------|
|-4-4-(4)----x\--||---4------------|
|------------x\--||-4--------------|
|------------x\--||----------------|


                                           \1.5______/
         PM----------------------------|
|--------------------------------|------------------------2----|
|--------------------------------|-------2--------------2------|
|-5s6----------------------------|-----2---5--------(5)-----5--|
|--------------------------------|---4-------------------------|
|--------------------------------|-4---------------------------|
|-----x\-2-2-2-2-2-2-2-2-2-2-2-2-|-----------------------------|


                                                ~
|--------------------------------------------------|
|-2tr5---------------------------------------------|
|-------4b5==(4)r(4)p2-----4b5==(4)r(4)-2----------|
|----------------------4-2----------------4p2------|
|---------------------------------------------4-3--|
|--------------------------------------------------|


          \1.5         \1.5_____/      \2
  PM--|                                         PM--|
|-------------------|------()--()----|----------------------|
|-------2-----------|-------------------------|-------2--------------|
|-----2---5---------|-------------------------|-----2---5----(5)p4p2-|
|---4---------------|-------------------------|---4------------------|
|-4-----------------|-------------------------|-4--------------------|
|-------------------|-------------------------|----------------------|


                          N.C.(F#)
   \1.5______/
                          PM|   PM  PM  PM--|   PM  PM
|-------()-------||-------------------------------------|
|----------------------||-------------------------------------|
|----------------------||-------------------------------------|
|----------------------||---------------------4---5---4h5p4p2-|
|----------------xp==0-||-----4---5---4-----------------------|
|----------------------||-2-2---2---2---2-2-2---2---2---------|


  PM|   PM  PM  PM                  PM|   PM  PM  PM--|   PM  PM
|---------------------------------|-------------------------------------|
|---------------------------------|-------------------------------------|
|---------------------------------|-------------------------------------|
|---------------------------------|---------------------4---5---4h5p4p2-|
|-----4---5---4---5-4-2---4-2-----|-----4---5---4-----------------------|
|-2-2---2---2---2-------5-----5-4-|-2-2---2---2---2-2-2---2---2---------|


  PM------------|   PM--|   PM--------|   PM  PM  PM--|   PM  PM
|---------------------------------|-------------------------------------|
|---------------------------------|-------------------------------------|
|---------------------------------|-------------------------------------|
|---------------------------------|---------------------4---5---4h5p4p2-|
|-----------------4-------4-------|-----4---5---4-----------------------|
|-2-2-2-2-2-2-2-2---5-5-5---4-4-4-|-2-2---2---2---2-2-2---2---2---------|


  PM|   PM  PM  PM
|----------------------------------|
|----------------------------------|
|----------------------------------|
|----------------------------------|
|-----4---5---4---5-4-2---4-2------|
|-2-2---2---2---2-------5-----5-4--|


  PM|   PM  PM  PM--|   PM  PM
|--------------------------------|
|--------------------------------|
|--------------------------------|
|---------------------4---5---4--|
|-----4---5---4------------------|
|-2-2---2---2---2-2-2---2---2----|


                                                                             F#5
|-21p16h17h21s22s21p17p16-16h17----16--------------------------------------|------------*|
|-------------------------------19----19\-15h16-15h16----------------------|------------*|
|-----------------------------------------------------16p14-13-------------|------------*|
|--------------------------------------------------------------16p14p13-x\-|-4-4--------*|
|-----------------------------------------------------------------------x\-|-4-4--------*|
|-----------------------------------------------------------------------x\-|-2-2--------*|



Comments