Dokken - In My Dreams Chords & Tabs

 

In My Dreams Chords & Tabs

Dokken Chords & Tabs

Version: 2 Type: Tab 0 ratings
1 star 2 stars 3 stars 4 stars 5 stars
comments

In My Dreams Tab

   
In My Dreams
Artist: Dokken
Album: Under Lock And Key
Transcribed By: Jack Arrowood


                          
e |------------------|-----------------|-----------------|-----------------|
B |------------------|-----------------|-----------------|-----------------|
G |------------------|-----------------|-----------------|-----------------|
D |------------------|-----------------|-----------------|-----------------|
A |------------------|-----------------|-----------------|-----------------|
E |------------------|-----------------|-----------------|-----------------|
 
   
e |----------------|----------------|----------------|----------------|
B |----------------|----------------|----------------|----------------|
G |----------9--9--|----------7--7--|----------5-----|-7--------9--9--|
D |----------9--9--|----------7--7--|----------5-----|-7--------9--9--|
A |-----5-7--7--7--|-----5-7--5--5--|-----5-7--3-----|-5--------7--7--|
E |-5/7------------|-5/7------------|-5/7------------|----------------|

      Guitar 1
e |----------------|----------------|----------------|----------------|
B |----------------|----------------|----------------|----------------|
G |----------9--9--|----------7--7--|----------5-----|-7--------------|
D |----------9--9--|----------7--7--|----------5-----|-7-----5---7--7-|
A |-----5-7--7--7--|-----5-7--5--5--|-----5-7--3-----|-5-----5---7--7-|
E |-5/7------------|-5/7------------|-5/7------------|-------3---5--5-|
  |
  |   Guitar 2
e |----------0-----|-0--------0-----|-0--------0-----|-0--------------|
B |------------5---|---5--------5---|---5--------5---|---5------------|
G |-------4------4-|-----4-4------4-|-----4-4------4-|-----4----------|
D |----------------|----------------|----------------|-------5---7--7-|
A |----------------|----------------|----------------|-------5---7--7-|
E |----------------|----------------|----------------|-------3---5--5-| 

VERSE:
          
           
e |----------------|----------------|----------------|----------------|
B |----------------|----------------|----------------|----------------|
G |----------------|----------------|----------------|-5----9---7-7---|
D |-0h2------------|-0h2------------|-0h2------------|-5----9---7-7---|
A |-0h2------------|-0h2------------|-0h2------------|-3----7---5-5---|
E |-----0-0-0-0-0--|-----0-0-0-0-0--|-----0-0-0-0-0--|----------------|


          
      
e |----------------|----------------|----------------|----------------|
B |----------------|----------------|----------------|----------------|
G |----------------|----------------|----------------|-5--------7-7---|
D |-0h2------------|-0h2------------|-0h2------------|-5----5---7-7---|
A |-0h2------------|-0h2------------|-0h2------------|-3----5---5-5---|
E |-----0-0-0-0-0--|-----0-0-0-0-0--|-----0-0-0-0-0--|------3---------|


BRIDGE:
         
e |----------------|----------------|----------------|----------------|
B |----------------|----------------|----------------|----------------|
G |----------------|--7-------------|----------------|--7-------------|
D |-9h10-9---7-----|--7----7--------|-9h10-9---7-----|--7----7--------|
A |-7----7---7-----|--5----4--------|-7----7---7-----|--5----4--------|
E |----------------|----------------|----------------|----------------|


    
e |----------------|----------------|----------------|----------------|
B |----------------|----------------|----------------|----------------|
G |----------------|--7-------------|--7-------------|-2--------------|
D |-9h10-9---7-----|--7----7--------|--7-------------|-2----2---2-----|
A |-7----7---7-----|--5----4--------|--5-------------|-0----0---0-----|
E |----------------|----------------|------------0-3-|--------3---3---|

[ Tab from: http://www.guitartabs.cc/tabs/d/dokken/in_my_dreams_tab_ver_2.html ]
CHORUS:
   
e |----------------|----------------|----------------|----------------|
B |----------------|----------------|----------------|----------------|
G |--------5-------|-4--------------|--------5-------|-4--------------|
D |-2------5-------|-4----2---------|-2------5-------|-4----2---------|
A |-2------3-------|-2----2---------|-2------3-------|-2----2---------|
E |-0--------------|------0---0-0-0-|-0--------------|------0---0-0-0-|

    
e |----------------|----------------|----------------|----------------|
B |----------------|----------------|----------------|----------------|
G |--------5-------|-4--------------|--------3-------|-7--------------|
D |-2------5-------|-4----2---------|-2------5-------|-7--------------|
A |-2------3-------|-2----2---------|-2------3-------|-5--------------|
E |-0--------------|------0---0-0-0-|-0--------------|----------------|

  
e |----------------|----------------|----------------|----------------|---------|
B |----------------|----------------|----------------|----------------|---------|
G |-5----7----9--9-|----------7--7--|----------5-----|-7--------9--9--|---------|
D |-5----7----9--9-|----------7--7--|----------5-----|-7--------9--9--|---------|
A |-3----5----7--7-|-----5-7--5--5--|-----5-7--3-----|-5--------7--7--|-----5-7-|
E |----------------|-5/7------------|-5/7------------|----------------|-5/7-----|Back to verse

SOLO:
   E       C        B       E        E           C            B            E
e |----------------|----------------|------------------------|------------------------|
B |----------------|----------------|------------------------|------------------------|
G |-2^-----4^------|--7ah---9ah-----|----12-----12-----11ah--|-12p11-----11p9-----9ah-|
D |----------------|----------------|-/9----9-9----9-9-------|-------9-9------9-9-----|
A |----------------|----------------|------------------------|------------------------|
E |----------------|----------------|------------------------|------------------------|

   E               C                    
e |--------------------------------------|----------------|----------------|----------------|
B |-10---12---13---12---10---12---10---9-|----------------|----------------|----------------|
G |----9----9----9----9----9----9----9---|----------------|----------------|----------------|
D |--------------------------------------|----------------|----------------|----------------|
A |--------------------------------------|----------------|----------------|----------------|
E |--------------------------------------|----------------|----------------|----------------|


e |----------------|----------------|----------------|----------------|
B |----------------|----------------|----------------|----------------|
G |----------9--9--|----------7--7--|----------5-----|-7--------9--9--|
D |----------9--9--|----------7--7--|----------5-----|-7--------9--9--|
A |-----5-7--7--7--|-----5-7--5--5--|-----5-7--3-----|-5--------7--7--|
E |-5/7------------|-5/7------------|-5/7------------|----------------|


      Guitar 1                                 Ah     Ah    Ah.......
e |----------------|----------------|----------------|----------------|
B |----------------|----------------|----------------|----------------|
G |----------9--9--|----------7--7--|----------5-----|-7--------------|
D |----------9--9--|----------7--7--|----------5-----|-7----5---7--7--|
A |-----5-7--7--7--|-----5-7--5--5--|-----5-7--3-----|-5----5---7--7--|
E |-5/7------------|-5/7------------|-5/7------------|------3---5--5--|
  |
  |
  |   Guitar 2
e |----------0-----|-0--------0-----|-0--------0-----|-0--------------|
B |------------5---|---5--------5---|---5--------5---|---5------------|
G |-------4------4-|-----4-4------4-|-----4-4------4-|-----4----------|
D |----------------|----------------|----------------|-------5---7--7-|
A |----------------|----------------|----------------|-------5---7--7-|
E |----------------|----------------|----------------|-------3---5--5-|


CHORUS:
    
e |----------------|----------------|----------------|----------------|
B |----------------|----------------|----------------|----------------|
G |--------5-------|-4--------------|--------5-------|-4--------------|
D |-2------5-------|-4----2---------|-2------5-------|-4----2---------|
A |-2------3-------|-2----2---------|-2------3-------|-2----2---------|
E |-0--------------|------0---0-0-0-|-0--------------|------0---0-0-0-|
Comments