Dogstar - 32 Stories Chords & Tabs

 

32 Stories Chords & Tabs

Dogstar Chords & Tabs

Version: 1 Type: Bass Tab 0 ratings
1 star 2 stars 3 stars 4 stars 5 stars
comments

32 Stories Bass Tab

Dogstar is the ex-band from Keanu Reeves from Los Angeles. The official-site doesnīt exist no more,
but hereīs one site http://www.reeves-dogstar.com

32 Stories - Dogstar 
Album: Quattro Formagi 1996
(Bret Domrose)
Tabbed by Siriusbass

Intro:

G---------------------------------------------------------------------
D-----2-2----------5-5-5--5-5-5-5---2-2-----------5-5-5--5-5-5-5------
A----------3-3-3--------------------------3-3-3-----------------------
E---------------------------------------------------------------------

Vers I:

G---------------------------------------------------------------------
D----------------------------------5-5--------------------------------
A------------3-3--/--7-7---7-7-7----------3-3--/--7-7---7-7-7---------  3x
E------5-5------------------------------------------------------------

G---------------------------------------------------------------------
D---------------------------------5-5---------------------------------
A-----------3-3--/--7-7---7-7-7----------3-3---3-3---3-3-3-3----------
E------5-5------------------------------------------------------------

Chorus:

G---------------------------------------------------------------------
D------2-2-----------5-5-5---5-5-5-5---2-2-----------5-5-5---5-5-5-5--
A------------3-3-3---------------------------3-3-3--------------------  2x
E---------------------------------------------------------------------

VersII:

G----------------------------------------------------------------------
D----------------------------------------------------------------------
A------------3-3---/--7-7---7-7-7---3-3---------7-7---7-7-7------------  3x
E------5-5--------------------------------5-5--------------------------
[ Tab from: http://www.guitartabs.cc/tabs/d/dogstar/32_stories_btab.html ]
G----------------------------------------------------------------------
D----------------------------------------------------------------------
A-------------3-3---/--7-7---7-7-7---3-3-------------------------------
E-------5-5--------------------------------5-5---5-5-5-5---------------

Chorus:

G----------------------------------------------------------------------
D--------2-2-----------5-5-5---5-5-5-5---2-2-----------5-5-5---5-5-5-5-
A--------------3-3-3---------------------------3-3-3-------------------  2x
E----------------------------------------------------------------------

Instrumental part:

G----------------------------------------------------------------------
D----------------------------------------------------------------------
A------------3-3---/---7-7---7-7-7---3-3-------------7-7-7-7---7-7-7-7-
E------5-5---------------------------------5-5-5-5---------------------

G----------------------------------------------------------------------
D----------------------------------------------------------------------
A---------3-3-3-3--7-7-7-7--7-7-7-7--3-3-3-3--3-3-3-3--3-3-3-3--3-3-3-3
E-5-5-5-5--------------------------------------------------------------

Chorus:

G-----------------------------------------------------------------------
D------2-2-----------5-5-5---5-5-5-5---2-2-----------5-5-5----5-5-5-5---
A------------3-3-3---------------------------3-3-3----------------------  2x
E-----------------------------------------------------------------------

G-----------------------------------------------------------------------
D------2-2-----------5-5-5---5-5-5-5---2-2-----------5-5-5---5-5-5---2--
A------------3-3-3---------------------------3-3-3----------------------
E-----------------------------------------------------------------------


Iīm not shure, if itīs really played with bass, but it sounds pretty cool.
Comments