Dog Eat Dog - Think Chords & Tabs

 

Think Chords & Tabs

Dog Eat Dog Chords & Tabs

Version: 2 Type: Tab 0 ratings
1 star 2 stars 3 stars 4 stars 5 stars
comments

Think Tab

Tabbed by: VYTIS  E-mail: vytisp@hotmail.com
 ==============================================================================
     This was my first tabbing, so don't be angry if you notice a mistake. Just
 E-mail me and let me know. If you have anything about DOG EAT DOG also send me
 I'll be very thankful. Have fun!
 ==============================================================================
[ Tab from: http://www.guitartabs.cc/tabs/d/dog_eat_dog/think_tab_ver_2.html ]
 SONG STRUCTURE:
 
 INTRO   x4
 FILL(1)  
 FILL(2) x3
 FILL(3)
 FILL(2) x3
 FILL(4)
 VERSE   x4
 FILL(1)
 FILL(2) x3
 FILL(3)
 FILL(2) x3
 FILL(4)
 CHORUS  x4
 FILL(5)
 VERSE   x4
 FILL(1)
 FILL(2) x3
 FILL(3)
 FILL(2) x3
 FILL(4)
 CHORUS  x4
 FILL(5)
 OUTRO 
 ============================================================================= 
 INTRO
 e:------------------------
 B:------------------------
 G:---------5-4------------
 D:--4-4-4--5-4--7-5-4-----
 A:--4-4-4--3-2--7-5-4-----
 E:--2-2-2-------5-3-2-----
 
 VERSE                                   FILL(1)
 e:------------------------              e:------------
 B:------------------------              B:------------
 G:-------5-4--------------              G:------------
 D:--4----5-4--7-5-4-------              D:-x--x-x-x-x-
 A:--4----3-2--7-5-4-------              A:-x--x-x-x-x-
 E:--2---------5-3-2-------              E:-x--x-x-x-x-
 
 FILL(2)                                 FILL(3)         FILL(4)
 e:------------------------              e:--------      e:--------
 B:------------------------              B:--------      B:--------
 G:--4-2--5-5--------------              G:--5-----      G:--5--7--
 D:--4-2--5-5--------------              D:--5--4--      D:--5--7--
 A:--2-0--3-3--------------              A:--3--4--      A:--3--5--
 E:------------------------              E:-----2--      E:--------

 CHORUS                                          FILL(5) - together with sax
 e:--------------------|-----------              e:-------------------------
 B:--------------------|-----------              B:-------------------------
 G:--------------------|---4----4--              G:-------------------------
 D:-4-4-4-4-4-2-4-5--4-|-2-4--2-4--              D:---4--3--2-3-2--3--------
 A:-4-4-4-4-4-2-4-5--4-|-2-2--2-2--              A:---4--3--2-3-2--1--------
 E:-2-2-2-2-2-0-2-3--2-|-0----0----              E:---2--1--0-1-0-----------       
                                                                     ~~~~~~~
 OUTRO
 e:------------------------
 B:------------------------
 G:-----------5-4----------
 D:---4-4--4--5-4--7-5-4---
 A:---4-4--4--3-2--7-5-4---
 E:---2-2--2-------5-3-2---

 =============================================================================
Comments