Doemaar - Is Dit Alles Chords & Tabs

 

Is Dit Alles Chords & Tabs

Doemaar Chords & Tabs

Version: 1 Type: Bass Tab 0 ratings
1 star 2 stars 3 stars 4 stars 5 stars
comments

Is Dit Alles Bass Tab

Doe maar - Is dit alles? (bass)

intro
G |-----------------------------|
D |-------7-7-7-7---------------|
A |-5---(5)----------5----------|
E |----------------------5--5---|

couplet (chorus) speel een aantal keer:
G |-----------------------------|
D |-------7-7-7-7---------------|
A |-5---(5)---------5-----------|
E |----------------------5--5---|(2x)

G |-----------------------------|
D |-----------------------------|
A |------5-5-5-5----------------|
E |-3--(3)----------3----5--5---|(2x)

eindig met één keer de eerste bar te spelen
[ Tab from: http://www.guitartabs.cc/tabs/d/doemaar/is_dit_alles_btab.html ]
refrein (verse)               2x 
G |-----------------------------|--------------------------------------------------------|
D |----------------------5---5--|--------------------------------------------------------|
A |----5-5-5-5----3-------------|-----5-5-5-5---3------------------3-3-3-3--------3--3-3-|
E |-3---------------------------|-3------------------3---3---1---1---------1----1--------|

   (varieer met het ritme)    2x
G |-----------------------------|----------------------------------4-4-4-4---------------|
D |--------------------5-5-5-5--|-------------------(5)-(5)--2--2-----------------2--2-2-|
A |------5---5-----3------------|-----5-5-5-5---3---------------------------0--0---------|
E |-3---------------------------|-3------------------3---3-------------------------------|
                                          (tussen haakjes het 2e/3e ref spelen)

tijdens het instrumentale deel
G |--------------/9-7--------------
D |-------7-7-7-7-----7------------
A |-5---(5)---------------7-----7--
E |-------------------------5-8----

submitted by dION (kantongerecht@hotmail.com)
Comments