Doe Maar - Dansen Met Alice Chords & Tabs

 

Dansen Met Alice Chords & Tabs

Doe Maar Chords & Tabs

Version: 1 Type: Bass Tab 0 ratings
1 star 2 stars 3 stars 4 stars 5 stars
comments

Dansen Met Alice Bass Tab

   
Doemaar - Dansen met Alice

E|-----3-----------3-----|
A|--3-----555--0-3----55-|
D|-----------------------|
G|-----------------------|

  Want dat had ik echt...
E|---------------------------------------|
A|-3--3h5--5h7--7h8--8-5-5---------------|
D|-----------------10------555--3-3-5----|
G|------------------------------------/9-|
[ Tab from: http://www.guitartabs.cc/tabs/d/doe_maar/dansen_met_alice_btab.html ]
  Want dansen wil ze wel...
E|------------------------------------------------------|
A|--8-8--7-7--6-6-------8-8--7-7--6-6-------8-8--7-7--6-|
D|------------------------------------------------------|
G|------------------------------------------------------|

  dansen met alice...
E|--8---------------------------|
A|----7-10---8-------10---------|
D|-------------7-10-----9-12----|
G|---------------------------12-|

  Instrumenta(a)l
E|------------------------------------------------------|
A|--8-8--7-7--6-6--888--8-8--7-7--6-6--888--8-8--7-7--6-|
D|------------------------------------------------------|
G|------------------------------------------------------|

  Outro
E|---------8--|
A|--8---------|
D|------------|
G|------------|

Submitted by dION (kantongerecht@hotmail.com)
Comments