Doa - My Old Mans A Bum Bloodsucker Baby Chords & Tabs

 

My Old Mans A Bum Bloodsucker Baby Chords & Tabs

Doa Chords & Tabs

Version: 1 Type: Tab 0 ratings
1 star 2 stars 3 stars 4 stars 5 stars
comments

My Old Mans A Bum Bloodsucker Baby Tab

\ = slide

Intro 1: x1
|---------------|
|---------------|
|---7-----------|
|---7---7---9---|
|---5---7---9---|
|-------5---7---|

Intro 2: x2
|------------------------------------|
|------------------------------------|
|---7-77-----------------------------|
|---7-77-7-77-7\999-7\999-7\999-99---|
|---5-55-7-77-7\999-7\999-7\999-99---|
|--------5-55-5\777-5\777-5\777-77---|

Verse 1: x4
|------------------------------------|
|------------------------------------|
|---7-77-----------------------------|
|---7-77-7-77-7\999-7\999-7\999-99---|
|---5-55-7-77-7\999-7\999-7\999-99---|
|--------5-55-5\777-5\777-5\777-77---|

Bridge: x4
|--------------------|
|--------------------|
|--------------------|
|---2--4-4--5--4-4---|
|---2--4-4--5--4-4---|
|---0--2-2--3--2-2---|
[ Tab from: http://www.guitartabs.cc/tabs/d/doa/my_old_mans_a_bum_bloodsucker_baby_tab.html ]
Verse 2: x4
|---------------------------|
|---------------------------|
|---7-7---------------------|
|---7-7-7-7-9-x-x-x-x-x-x---|
|---5-5-7-7-9-x-x-x-x-x-x---|
|-------5-5-7-x-x-x-x-x-x---|

Interlude: x1
|----------------------------------|
|----------------------------------|
|---11---9---11---9----------------|
|---11---9---11---9---9--9--9--9---|
|----9---7----9---7---9--9--9--9---|
|---------------------7--7--7--7---|

|---------------------|
|---------------------|
|---7-7---------------|
|---7-7-7-7-9-9-9-9---|
|---5-5-7-7-9-9-9-9---|
|-------5-5-7-7-7-7---|

Bloodsucker Baby: x a lot
|-------------------------------------------|
|-------------------------------------------|
|-------------------------------------------|
|---2--4-4-4--2--4-4-4--2--4-4-4--2--5--5---|
|---2--4-4-4--2--4-4-4--2--4-4-4--2--5--5---|
|---0--2-2-2--0--2-2-2--0--2-2-2--0--3--3---|
Comments