Doa - Enemy Chords & Tabs

 

Enemy Chords & Tabs

Doa Chords & Tabs

Version: 1 Type: Tab 0 ratings
1 star 2 stars 3 stars 4 stars 5 stars
comments

Enemy Tab

   
-------------------------------------------------------------------------------
			     The Enemy - D.O.A.
-------------------------------------------------------------------------------
Tabbed by: bucky_2300 aka Duncan
Email: mole-in-a-hole@shaw.ca

Tuning: Standard
This is a great great song, and I love to play it. Sorry I didn't tab the solo, but it's a 
bugger to figure out and I always just play a little jam in its place anyway.
[ Tab from: http://www.guitartabs.cc/tabs/d/doa/enemy_tab.html ]
Intro:
e|---------------------------------------------------------------------------|
B|---------------------------------------------------------------------------|
G|--9-9--9-------------------------------------------------------------------|
D|--9-9--9-0--9-9-7-7-7------------------------------------------------------|
A|--7-7--7-0--9-9-7-7-7------------------------------------------------------|
E|------------7-7-5-5-5------------------------------------------------------|
x4, then the verse:
Verse:
pm---------
e|---------------------------------------------------------------------------|
B|---------------------------------------------------------------------------|
G|----------4-4-2------------------------------------------------------------|
D|-22222222-4-4-2------------------------------------------------------------|
A|-22222222-2-2-0------------------------------------------------------------|
E|-00000000------------------------------------------------------------------|

Over and over, then the chorus:

e|-----------------0-----0-0-------------------------------------------------|
B|-----------------0-----0-0-------------------------------------------------|
G|---4------2------1-----1-1-------------------------------------------------|
D|--4-4-4--2-2-2---2-2-2-----------------------------------------------------|
A|-2------0--------2-2-2-----------------------------------------------------|
E|---------------0-0-0-0-----------------------------------------------------|

You then play the intro riff again, then into the verse. So it continues, until the solo, 
which you can either figure out yourself or just jam into. Cheers, and have fun playing.


| /  slide up
| \  slide down
| h  hammer-on
| p  pull-off
| ~  vibrato
| +  harmonic
| x  Mute note
===============================================================================
Comments