Do Me Bad Things - Time For Deliverance Chords & Tabs

 

Time For Deliverance Chords & Tabs

Do Me Bad Things Chords & Tabs

Version: 1 Type: Bass Tab 0 ratings
1 star 2 stars 3 stars 4 stars 5 stars
comments

Time For Deliverance Bass Tab

Do Me Bad Things: Time For Deliverance (bass tab)

Sorry this looks a bit confusing at first, but it's fairly simple once you've worked it
out. Please note that the song order at the bottom is very important and the rest doesn't
make a lot of sense without it.

part 1
-------------|-----------------|
-----------0-|-----------0-----|
--1--0-------|--1--0--------2--|
--------3----|--------3--------|

part 2
-----------------|-----------|-----------------|---------------|
-2-2-2-2-2-2-2-2-|---------0-|-2-2-2-2-2-2-2-2-|----------0----|
-----------------|-1--0------|-----------------|--1--0-------2-|
-----------------|------3----|-----------------|--------3------|

part 3
--------------------|
--------------------|
--2-2-2-1-1-1-0-0-0-|
--------------------|

part 4
--------------------|--------------|
--------------------|--------------|
--2-2-2-1-1-1-0-0-0-|--------------|
--------------------|-3-3-3-2-2-2--|

part 5
-----------------|-----------------|-----------------|-----------------|
-----------------|---------1-1-1-1-|-2-2-2-2-2-2-2-2-|-4-4-4-4-4-4-4-4-|
-3-3-3-3-3-3-3-3-|-2-2-2-2---------|-----------------|-----------------|
-----------------|-----------------|-----------------|-----------------|
[ Tab from: http://www.guitartabs.cc/tabs/d/do_me_bad_things/time_for_deliverance_btab.html ]
part 6
-----------------|-----------------|
-----------------|-----------------|
-3-3-3-3-3-3-3-3-|-2-2-2-2-2-2-2-2-|
-----------------|-----------------|

part 7
-------------------|-------------|
-------------------|-------0-0-0-|
-0-0-0-------------|-3-3-3-------|
-------3-3-3-2-2-2-|-------------|

part 8
------------------|-------------|
------------------|-------0-0-0-|
--0-0-0-0-0-0-0-0-|-3-3-3-------|
------------------|-------------|

part 9
-----------------|-------0-|-----------------------|
-----------------|-1-0-----|---------------------1-|
-3-3-3-3-3-3-3-3-|-----3---|-0-0-0-0-0-0-------3---|
-----------------|---------|-------------3-2-1-----|

part 10
---------|
--0-0-0--|
---------|
---------|


Song Order:
part 1 x2 \
part 2 x2  |Intro
part 3 x2 /
part 4 x2 -Verse starts ("I recall something that you don't"...)
part 5 x2 -Next bit of verse ("I recall somthing... You lied, you compromised"...)
part 6 x1 -Bridgey bit
part 7 x2 \ ("cause what you said"...)
part 8 x1  |Chorus
part 2 x2 /
part 3 x2 \
part 4 x2  | verse again
part 5 x2  |
part 6 x1 /
part 7 x2 \
part 8 x1  |Chorus
part 2 x1   \
part 9 x1    |Solo
part 3 x3   /
part 4 x1 \
part 5 x2  |Verse
part 6 x1 /
part 7 x2 \
part 8 x1  |Super finalé chorus
part 2 x2 /
part 10 x1 The End.

Phew! There. I apologise for any mistakes, I was doing it by ear so it won't be perfect,
but I that's the whole song covered as best as I can.
Enjoy playing. :)
-xFishx-
Comments