Do Make Say Think - Landlord Is Dead Chords & Tabs

 

Landlord Is Dead Chords & Tabs

Do Make Say Think Chords & Tabs

Version: 1 Type: Tab 0 ratings
1 star 2 stars 3 stars 4 stars 5 stars
comments

Landlord Is Dead Tab

   
----------------------------------------------------------------------------
		     The Landlord is Dead - Do Make Say Think
----------------------------------------------------------------------------
This is a great song by a relatively little known indie space-rock band from Montreal
called Do Make Say Think. It's my favourite song by them, so I figured I'd tab out the
main riff, which is all I have figured out right now, but it carries through most of the
song. E-mail me with corrections if you have them, I'll try and tab out the rest if I can

[ Tab from: http://www.guitartabs.cc/tabs/d/do_make_say_think/landlord_is_dead_tab.html ]
Tabbed by: Dave
Email: ironic_clown@hotmail.com

Tuning: eb Bb Gb Db Ab eb

e|----------------------------------------------|
B|------1----------1-------1----------1---------|
G|--------2-(2)------2-------2-(2)------2-------|
D|---0-----------0------------------------------|
A|----------------------4-----------1-----0-----|
E|------------------------------------------1---|



|(2) ghost note
| /  slide up
| \  slide down
| h  hammer-on
| p  pull-off
| ~  vibrato
| +  harmonic
| x  Mute note
============================================================================
Comments