Do Make Say Think - Chinatown Chords & Tabs

 

Chinatown Chords & Tabs

Do Make Say Think Chords & Tabs

Version: 1 Type: Tab 0 ratings
1 star 2 stars 3 stars 4 stars 5 stars
comments

Chinatown Tab

Synth Part:

(0:03 - 0:07)

E|--------------2-----------|
B|--------3-----------3-----|
G|-----4-----4-----4-----4--|
D|--5-----------------------|
A|--------------------------|
E|--------------------------|

(0:07 onwards)


E|--------------2-----------|
B|--------3--------------3--|
G|-----4-----4--------4-----|
D|--5--------------5--------|
A|--------------------------|
E|--------------------------|

Guitar 1:

(0:18)

E|-----------------|
B|-----------------|
G|-----------------|
D|-----------------|
A|-----------------|
E|--5----/10----\3-|

(1:41)
[ Tab from: http://www.guitartabs.cc/tabs/d/do_make_say_think/chinatown_tab.html ]
E|-----------------------------------------------------------|
B|-----------------------------------------------------------|
G|-----------------------------------------------------------|
D|-----------------------------------------------------------|
A|-----------------------------------------------------------|
E|----10----5----10----3----10----5----10----3----10----5----|

(2:18)

E|-------------------------------------------------------|
B|-------------------------------------------------------|
G|-------------------------------------------------------|
D|-------------------------------------------------------|
A|-------------------------------------------------------|
E|----10----12----10----10----12----10----7----5----3----|

(3:00)

E|------------------------------------------------------------|
B|------------------------------------------------------------|
G|------------------------------------------------------------|
D|------------------------------------------------------------|
A|------------------------------------------------------------|
E|----10----12----10----10----5----3----10----5----10----5----|

(4:00)

E|----------------------------|
B|----------------------------|
G|----------------------------|
D|----------------------------|
A|----------------------------|
E|----10~---10~---10~---10~---|
Comments