Do As Infinity - Under The Sun Chords & Tabs

 

Under The Sun Chords & Tabs

Do As Infinity Chords & Tabs

Version: 1 Type: Bass Tab 0 ratings
1 star 2 stars 3 stars 4 stars 5 stars
comments

Under The Sun Bass Tab

   
Do As Infinity
Under The Sun
Drop-D Tuning
Tabbed By Alex Fragd (mavrick_45)


G---5~-------------------------------------------------------------
D----------------------/-12---32-0---3-2-0---0>---3-2-0---3-2-0---
A------3>----------------------------------------------------------
D-----------0---/-12-----------------------------------------------

G--------------------------------------------------------------------
D-------------------------3-5-5-------------------------------------
A----------------------------------------------------------6-66666---
D---0-2---3-5-5--0-2-----------0-2---3-5-5---7777777------------

G----------------------------------------------------------------------
D----------------------------/12\-10-----------------------------------
A-----------------------\88-------------------------------1212-88------
D---8-888-88-888-7777----------------1010101010101010-1212--------10---

G----------------------------------------------------------------------
D--------------------------/12\-10-------------------------------------
A---------------------\88----------------------------------------------
D---8-888-88-888-7777--------------1010101010101010-1212-11-11-1010-99-

G----------------------------------------------------------------------
D----------------------------/12\-10-----------------------------------
A-----------------------\88-------------------------------1212-88------
D---8-888-88-888-7777----------------1010101010101010-1212--------10---

G-------------------------------------------------------------
D--------------------------/12\-10---------------------/-12---
A---------------------\88-------------------------------------
D---8-888-88-888-7777--------------1010101010101010-12--------

G----------------------------------------------------------------------
D------------------------/-12---32-0---3-2-0---0>--15-14-12--15-14-12-
A---3>/15\3>-----------------------------------------------------------
D--------------0--/-12-------------------------------------------------

G------------------------------------------------------------------
D----------3--5-5--------3-5-5------------------------------------
A--------------------------------------------------------6-66666---
D---0-2-----------0-2----------0-2---3-5-5---7777777-----------

G----------------------------------------------------------------------
D----------------------------/12\-10-----------------------------------
A-----------------------\88-------------------------------1212-88------
D---8-888-88-888-7777----------------1010101010101010-1212--------10---

G----------------------------------------------------------------------
D--------------------------/12\-10-------------------------------------
A---------------------\88----------------------------------------------
D---8-888-88-888-7777--------------1010101010101010-1212-11-11-1010-99-

G----------------------------------------------------------------------
D----------------------------/12\-10-----------------------------------
A-----------------------\88-------------------------------1212-88------
D---8-888-88-888-7777----------------1010101010101010-1212--------10---
[ Tab from: http://www.guitartabs.cc/tabs/d/do_as_infinity/under_the_sun_btab.html ]
G-------------------------------------------------------------
D--------------------------/12\-10---------------------/-12---
A---------------------\88-------------------------------------
D---8-888-88-888-7777--------------1010101010101010-12--------

G-------------------------------------
D---0>-2-0>---9-9-9-9-9---8-8-8-8-8---
A-------------------------------------
D-------------------------------------

G-------------------------------------------------
D-----3-5-5--------------------------------------
A--------------------------------------6-666666---
D---\---------0-2---3-5-5---7777777-------------

G----------------------------------------------------------------------
D----------------------------/12\-10-----------------------------------
A-----------------------\88-------------------------------1212-88------
D---8-888-88-888-7777----------------1010101010101010-1212--------10---

G----------------------------------------------------------------------
D--------------------------/12\-10-------------------------------------
A---------------------\88----------------------------------------------
D---8-888-88-888-7777--------------1010101010101010-1212-11-11-1010-99-

G----------------------------------------------------------------------
D----------------------------/12\-10-----------------------------------
A-----------------------\88-------------------------------1212-88------
D---8-888-88-888-7777----------------1010101010101010-1212--------10---

G----------------------------------------------------------------------
D--------------------------/12\-10-------------------------------------
A---------------------\88----------------------------------------------
D---8-888-88-888-7777--------------1010101010101010-1212-11-11-1010-99-

G----------------------------------------------------------------------
D----------------------------/12\-10-----------------------------------
A-----------------------\88-------------------------------1212-88------
D---8-888-88-888-7777----------------1010101010101010-1212--------10---

G----------------------------------------------------------------------
D--------------------------/12\-10-------------------------------------
A---------------------\88----------------------------------------------
D---8-888-88-888-7777--------------1010101010101010-1212-11-11-1010-99-

G-----------------------------------10----10-12----------------------
D--------------------------/12\-10-----12----------------------------
A---------------------\88------------------------121212-101010-888---
D---8-888-88-888-7777------------------------------------------------

G----------------------------------------------------------------------
D--------------------------/12\-10-------------------------------------
A---------------------\88----------------------------------------------
D---8-888-88-888-7777--------------101010101010100-1212-1313-1414-1515-

G----------------------------------------------------------------------
D----------------------------/12\-10-----------------------------------
A-----------------------\88-------------------------------1212-88------
D---8-888-88-888-7777----------------1010101010101010-1212--------10---

G----------------------------------------------------------------------
D--------------------------/12\-10-------------------------------------
A---------------------\88----------------------------------------------
D---8-888-88-888-7777--------------1010101010101010-1212-11-11-1010-99-
fade out
> = repeat same note.
Comments