Do As Infinity - Tangerine Dream Chords & Tabs

 

Tangerine Dream Chords & Tabs

Do As Infinity Chords & Tabs

Version: 2 Type: Tab 0 ratings
1 star 2 stars 3 stars 4 stars 5 stars
comments

Tangerine Dream Tab

   
Do As Infinity

Tangerine Dream 

Tabbed by Raman

Standard Tuning, Capo on 1
Play relative to Capo, ie. 5 = 6th fret etc.

h=hammer on
p=pull off
s=slide
^=bend

//Intro

----------------------------------------------|
-------------1---1-1---------------------1----|
-------5--4--2---2-2-4-------------5--4--2----|
-----5----5--3---3-3-5-----------5----5--3----|
---7------5--3---3-3-5---------7------5--3----|
-5--------3--1---1-1-3-------5--------3--1----|


//Verse 1

1st Guitar
-------------------------|
-------------1---1-1-----|
-------5--4--2---2-2-4---| x2
-----5----5--3---3-3-5---|
---7------5--3---3-3-5---|
-5--------3--1---1-1-3---|


2nd Guitar (near the end of the second time 0:20)
------------------------|
------------------------|
-9-10-12-10-9-10-9------|
--------------------12--|
------------------------|
------------------------|


1st Guitar
---------------------------|
---------------1---1-1-----|
-------5----4--2---2-2-4---| x2
-----5------5--3---3-3-5---|
---7--------5--3---3-3-5---|
-8--------3-3--1---1-1-3---|


2nd Guitar (0:30)
-----------------------------------------|
-----------------------------------------|
-12p10-10-10-10p9-9-9-9h10p9--7h-9p-7-6--|
-----------------------------------------|
-----------------------------------------|
-----------------------------------------|


1st Guitar
---------------------------|
-------2-------------------|
------------9--7---7-7-9---| x2
-----4------9--7---7-7-9---|
---4--------7--5---5-5-7---|
-2-------------------------|


2nd Guitar (0:36)
---------------------------|
---------------------------|
---------------------------|
-----7-9-7-9-11-9-7-9s11---|
-7h9-----------------------|
---------------------------|


1st Guitar
---------------------------|
---------------------------|
-------6----9--7---7-7-9---| x2
-----7------9--7---7-7-9---|
---7--------7--5---5-5-7---|
-5--------7----------------|


2nd Guitar (0:47)
----------------------|
----------------------|
----------------------|
--7-9-9s11-9-7-9-7----|
----------------------|
----------------------|

end verse on 

-------|
---7---|
---9---|
---9---|
-------|
-------|


//Chorus


Guitar 1 (strum)

A    E    F#m   D   A    E    D   x2

end on 

D5


Guitar 2(electric in background, not quite sure on this)
------0-----0---0---0-----|
--------------------------|
----2---2-----2---2---2---|
--------------------------| repeat through chorus
--0-----------------------|
--------------------------|

Play Intro again


//Verse 2


Guitar 1
-------------------------|
-------------1---1-1-----|
-------5--4--2---2-2-4---| x2
-----5----5--3---3-3-5---|
---7------5--3---3-3-5---|
-5--------3--1---1-1-3---|

[ Tab from: http://www.guitartabs.cc/tabs/d/do_as_infinity/tangerine_dream_tab_ver_2.html ]
Guitar 2 (1:41)
--------------------------------------|
----8s10------------------------------|
---------9-9-10-12-10-9-10-9----------|
-----------------------------7-10-----|
--------------------------------------|
--------------------------------------|


1st Guitar
---------------------------|
---------------1---1-1-----|
-------5----4--2---2-2-4---| x2
-----5------5--3---3-3-5---|
---7--------5--3---3-3-5---|
-8--------3-3--1---1-1-3---|

end verse on 

-------|
---7---|
---9---|
---9---|
-------|
-------|

//Chorus


//Bridge/Solo
 

  F#m                              E                            B                   
-------------------------------|----------------------------|------------------------------|
--12^full-12^bend/release--10--|--12b----------12-12s0------|---------9-10-9-7-9-7-5-4s11--|
-------------------------------|----------------------------|---9---9----------------------|
-------------------------------|----------------------------|-----9------------------------|
-------------------------------|----------------------------|------------------------------|
-------------------------------|----------------------------|------------------------------|
  
  F#m                   E                              D             
---------------------|------------------------------|--12p9--------14p9--------12p9--------|
---------------------|------------------------------|-------12-10-------12-10-------12-10--|
----------------11p9-|--9-9-------------------------|--------------------------------------|
-----7---7-9h11------|-------11--9--11--9-----------|--------------------------------------|
--7h9-7h9------------|--------------------12--9--7--|--------------------------------------|
---------------------|------------------------------|--------------------------------------|

D
-------------------------------------|
--10-12-10-12^--12p10--12^---12s0----|
-------------------------------------|
-------------------------------------|
-------------------------------------|
-------------------------------------|

//Last verse

(strum up) 
E	A	E	F#m
-0------0-------0------------------|
-0------2-------0-------------2----|
-1------2-------1-------------2----|
-2------2-------2----------4--4----|
-2------0-------2--------4---------|
-----------------------2-----------|

E	A	G (down) D	A
-0------0-------3--------2------0--|
-0------2-------3--------3------2--|
-1------2-------0--------2------2--|
-2------2-------0--------0------2--|
-2------0-------2---------------0--|
----------------3------------------|

//Chorus

//Intro x 2

That should be it, any problems, questions, feel free to email me at
raman@unsw.edu.au

Cheers
Comments