Do As Infinity - Nice And Easy Chords & Tabs

 

Nice And Easy Chords & Tabs

Do As Infinity Chords & Tabs

Version: 1 Type: Bass Tab 0 ratings
1 star 2 stars 3 stars 4 stars 5 stars
comments

Nice And Easy Bass Tab

Do As Infinity
Nice & Easy
Standard tuning
Tabbed by Alex fragd (mavrick_45)
Mavrick_45@sugarray.com



Intro X8 (optional)
G---1-1-1-1-1-1-1---0-0-0-0-0-0-0-0-0-0---
D-----------------------------------------
A-----------------------------------------
E-----------------------------------------


Verse 1
G-------------------------------------------------------
D-----------------------------------3-3-----------------
A----------------4----------6-6-----------4----------6--
E---13-\-1-1--------4-4-----------------------4-4-------


G--------------------------------------------------------------------------
D------------------------------4-4------------9---7------------------------
A---------5---77777777------------5---7-------------7-\-444444-/-16---16---
E---2-2--------------------------------------------------------------------


Chorus X2
G-------------------------------------------------------------------------------------------
D-----------------7-6--------------------9-7------------------------------------------------
A---5-5-5-5-5--------5-/-7-7-7-7-7--------7---0-0-0-0-0-0---2-2---4-4---8-8---11-11---16-16-
E-------------------------------------------------------------------------------------------

[ Tab from: http://www.guitartabs.cc/tabs/d/do_as_infinity/nice_and_easy_btab.html ]
G------------------------------------------------------------------------------------------
D------------------------------------------------------------------------------------------
A---5-5-5-5-5-5-5-5---------------------------------------------14-14-13-13-13-11-11-9-9-9-
E--------------------------0-0-0-0-0-0-0-0---2-2-2-/-9-/-14--------------------------------


Verse 2 X6
G-----------------------------------------
D-----------------------------------------
A-----------------------------------------
E---4-4-4-4-4-4-4---3-3-3-3-3-3-3-3-3-3---


Verse 1
Chorus X2
Rest



Verse 3
G--------------------------------------------------------------------------------------------
D--------------------------------------------------------------------------------------------
A---5-5---7---4-4---5-5---5-5--------4-4---5-5---5-5---7---4-4---2---4---5-------------------
E------------------------------------0-------------------------------------------------2---3-


Chorus


Chorus w/variation
G-----------------------------------------------------------------------------------------------------
D---------------7-6--------------------9-7------11-11-11-/-6-6-6-/-3-3-3------------------------------
A-5-5-5-5-5---------5-/-7-7-7-7-7-------7-----------------------------------4-4---8-8---11-11---16-16-
E-----------------------------------------------------------------------------------------------------


G-----------------------------------------------------------------------------------------
D----------------------------------------------------------------------------------------- X2
A---5-5-5-5-5-5-5-5------------------------------------------14-14-13-13-13-11-11-9-9-9---
E-------------------------0-0-0-0-0-0-0-0---2-2-2-/-9-/-14--------------------------------


G-----------------------
D-----------------------
A---5~------------------
E--------0~---2~-/-14---

Verse 2 till fade out
Comments