Do As Infinity - Grateful Journey Chords & Tabs

 

Grateful Journey Chords & Tabs

Do As Infinity Chords & Tabs

Version: 1 Type: Bass Tab 0 ratings
1 star 2 stars 3 stars 4 stars 5 stars
comments

Grateful Journey Bass Tab

   
Do As Infinity
Grateful Journey
 Drop-D tuning
 Tabbed by Alex Fragd (mavrick45 )
mavrick_45@sugarray.com


 Intro - guitar/drums only
Part one X3
G---------------------------------------------------------------|
D---------------------------------------------------------------|
A-----------------33333333---44444444---77777777----------------|
D---66666666----------------------------------------------------|


Part two
G-------------------------------------------------|
 D------------------------------------------------|
A---------------------4444444444444444------------|
 D---6---5---3---1--------------------------------|

Part one X1
 Part two X1


 Part three
G-------------------------------------------------------------------------------|
D-------------------------------------------------------------------------------|
A---4444444444444444---3333333333333333---4444444444444444----------------------|
D-------------------------------------------------------------------------------|

[ Tab from: http://www.guitartabs.cc/tabs/d/do_as_infinity/grateful_journey_btab.html ]
 Part four
G-------------------------------------------------|
D-------------------------------------------------|
A---------------------6666666666666666------------|
D---2---3---5---6---------------------------------|


Part five X2
G---------------------------------------------------------------------------------------------|
D---------------------------------------------------------------------------------------------|
A-44444444---33333333-------------------------------44444444---33333333---66666666---888---666|
D-----------------------------55555555---66666666---------------------------------------------|


Repeat All


 Part six X3
G---------------------------------------------------------------------------------|
D---------------------------------------------------------------------------------|
A-----------------------------------------333---33---33---444---44---44-----------|
D---666---66---66---111---11---11-------------------------------------------------|

Rest
Part four X1
Part five X2


Part seven
G----------------------------------------|
D----------------------------------------|
A---44444444---33333333------------------|
D--------------------------------\1~-----|


 Part one X4

Ending
G--------------------------------------|
D--------------------------------------|
A---------333---666---666---6\---------|
D---666--------------------------------|
Comments