Do As Infinity - Fukai Mori Chords & Tabs

 

Fukai Mori Chords & Tabs

Do As Infinity Chords & Tabs

Version: 1 Type: Tab 0 ratings
1 star 2 stars 3 stars 4 stars 5 stars
comments

Fukai Mori Tab

Standard tuning
Tabbed by Albert the Chu-meister
Tabs... yes TABS!! Everywhere I go I see Fukai Mori CHORDS, well here's some TABS for
you people! And other sites with these tabs have messed up ones too, all funky (first
finger on the first fret... fourth finger on the fifth... third finger on the third...
and second finger on the first...)
Forewarning: For some chords I only put one strum, that doesn't mean play it once.
Listen to the song and figure out the strum pattern.


Intro
e|---------------------------------------------------------|
B|-4-------------------------------------------------------|
G|-3-----3-----2---3---------------------------------------|
D|-1-----3-----3---3---------------------------------------|   repeat
A|-------1-----1---1---------------------------------------|
E|---------------------------------------------------------|

Verse
e|-------------1--------------1--------------1-------------|
B|-4-----3-----1------3-------1-------3------1------3------|
G|-3-----3-----2------3-------2-------3------2------3------|
D|-1-----3-----3--------------3-------5------3------5------|
A|---------------------------------------------------------|
E|---------------------------------------------------------|
[ Tab from: http://www.guitartabs.cc/tabs/d/do_as_infinity/fukai_mori_tab.html ]
e|-------------1--------------3--------------1--------------|
B|-4-----3-----1------3-------4-------3------1------3-------|
G|-3-----3-----2------3-------3-------3------2------3-------|
D|-1-----3-----3----------------------3------3------5-------|
A|----------------------------------------------------------|
E|--------------------3-------------------------------------|

Pre-Chorus
e|-------3-----2------3-------2-------3------3---2---0---2-----------|
B|-1-----3-----3------3-------3-------3------3---3---3---3-----------|
G|-------------2--------------2--------------2---2---2---2-----4-----|
D|-2------------------2----------------------------------------4-----|
A|-3-----2------------2---------------2------------------------2-----|
E|-------3----------------------------3------------------------------|

Chorus
e|-------------2------3-------------------------------------|
B|-------1-----3------3---------------1------4--------------|
G|-------------2-----------------------------4--------------|
D|-2-----2--------------------2-------2------4-------2------|   repeat
A|-2-----3------------2-------2-------3------2-------2------|
E|--------------------3----------------------2--------------|

Intro

Verse

Pre-Chorus 

Chorus

Break

Chorus   2x

Outro - Play chorus bar once softly

Compliments... I mean... comments... badboyslim888@hotmail.com
Comments