Dmx - X Gonna Give It To Ya Chords & Tabs

 

X Gonna Give It To Ya Chords & Tabs

Dmx Chords & Tabs

Version: 3 Type: Tab 0 ratings
1 star 2 stars 3 stars 4 stars 5 stars
comments

X Gonna Give It To Ya Tab

hey the othdr tabs were off by a bit
so heres the right thing

tune down a fret for strings E and D

|-----------------------------------------------------------|
|-----------------------------------------------------------|
|-----------------------------------------------------------|
|------9-9-9-9-------7-7-7-7-------5-5-5-5--------2-2-2-2---|
|-----------------------------------------------------------|
|--7-7----------5-5-----------3-3-----------0-0-------------|
[ Tab from: http://www.guitartabs.cc/tabs/d/dmx/x_gonna_give_it_to_ya_tab_ver_3.html ]
|---------------------|-----------------------------------|
|-----11~--9~--7~--4~-|--------11-11-11-11------9-9-9-9---|
|---------------------|-----------------------------------|
|---------------------|--------9--9--9--9-------7-7-7-7---|
|---------------------|-----------------------------------|
|---------------------|---7-7---------------5-5-----------|

|---------------------------------------------------------|
|-------7-7-7-7--------4-4-4-4------11~~-9~~~7~~~4~~~-----|
|---------------------------------------------------------|
|-------5-5-5-5--------2-2-2-2------9~~~-7~~~5~~~2~~~-----|
|---------------------------------------------------------|
|--3-3------------0-0-------------------------------------|

up until the bas is the intro, so just play the rest over and over and such
Comments