Dmx - One More Road To Cross Chords & Tabs

 

One More Road To Cross Chords & Tabs

Dmx Chords & Tabs

Version: 2 Type: Bass Tab 0 ratings
1 star 2 stars 3 stars 4 stars 5 stars
comments

One More Road To Cross Bass Tab

Song: One More Road To Cross
Artist: DMX
Album: And Then There Was X
Tabbed By: Cheran Shunmugavel
           gfngfgf@hotmail.com

[ Tab from: http://www.guitartabs.cc/tabs/d/dmx/one_more_road_to_cross_btab_ver_2.html ]
G-------------------------
D-------------------------
A--7-7-5-------5-7-5------
E--------8-5---------8-5--

G-------------------------
D--7-5-------------5------
A------8-7-----7-8---7----
E----------5-----------5--
Comments