Dj Shadow - Stemlong Stem Chords & Tabs

 

Stemlong Stem Chords & Tabs

Dj Shadow Chords & Tabs

Version: 1 Type: Tab 0 ratings
1 star 2 stars 3 stars 4 stars 5 stars
comments

Stemlong Stem Tab

-------------------------------------------------------------------------------
			     Stem/Long Stem - Dj Shadow
-------------------------------------------------------------------------------
Tabbed by: snow motion
Email:paulpryan@hotmail.com

Hey, this is my first tab, it's a great song that I thought should be on here so I 
gave it my best.
I'm missing a few parts near the end but I think I have the most important bits.
Hope you find it useful, comments and corrections welcome!

Tuning: Standard

Intro x4
e|-------------------------------------------------|
B|-------11----------------------12----11----------|
G|-------------13----11----------------------13----|
D|----13----13----13----13----13----13----13----13-|
A|-11----------------------11----------------------|
E|-------------------------------------------------|

e|-------------------------------------------------|
B|-------11-----------------------7-----------9----|
G|-------------13----11-----------------9----------|
D|----13----13----13----13-----9-----9-----9-----9-|
A|-11-----------------------7----------------------|
E|-------------------------------------------------|

Then it changes slightly...

Play this x2
e|-------------------------------------------------|
B|-------11----------------------12----11----------|
G|-------------13----11----------------------13----|
D|----13----13----13----13----13----13----13----13-|
A|-11----------------------11----------------------|
E|-------------------------------------------------|
[ Tab from: http://www.guitartabs.cc/tabs/d/dj_shadow/stemlong_stem_tab.html ]
e|-----------------------------------------------------------------------------------------|
B|-------11-----------------------7----------------11---------------------7-----------9----|
G|-------------13----11-----------------9-----------------13----11--------------9----------|
D|----13----13----13----13-----9-----9-----9----13----13-----13--------9-----9-----9-----9-|
A|-11-----------------------7----------------11---------------------7----------------------|
E|-----------------------------------------------------------------------------------------|

Then the intro again and this is played over it. (I'm not sure of this part, but I 
think it's close)
e|--------------------------------------------------|
B|-4-4-4-4-4-4-4---------------------4----4p1-1h4p1-|
G|------------------4p1-1h4p1----1-4----------------|
D|--------------------------------------------------|
A|--------------------------------------------------|
E|--------------------------------------------------|

At about 1:43 the intro is played again and this is played over it.
e|-------------------------------------|
B|-------------------------------------|
G|----------------------------------7~-|
D|--6-8-9-8--6p4\2~----6-8-9-6--9p6----|
A|-------------------------------------|
E|-------------------------------------|

This is played over the intro part from about 2:23.
e|------------------|
B|-16--19----14--16-|
G|------------------|
D|------------------|
A|------------------|
E|------------------|

From here for a while these parts are repeated.

Then the riff from organ donor is played.
e|-------------------------|
B|----11--9-11-----9-------|
G|--8----------11----10-11-|
D|-------------------------|
A|-------------------------|
E|-------------------------|
Comments