Dj Keoki - Speed Racer Chords & Tabs

 

Speed Racer Chords & Tabs

Dj Keoki Chords & Tabs

Version: 2 Type: Tab 0 ratings
1 star 2 stars 3 stars 4 stars 5 stars
comments

Speed Racer Tab

E--------------------------------------------------------|
B--------------------------------------------------------|
G--------------------------------------------------------|
D--------------------------------------------------------|
A--------------------------------------------------432---|
E?22222 0 0s222222 0 0s222222 0 0s222--------------------|


E--5-5s7---5-5s7----5-5s7--------------------------------------------|
B--------------------------------------------------------------------|
G--------------------------------------------------------------------|
D--------------------------------------------------------------------|
A--------------------------------------------------------------------|
E--------------------------------------------------------------------|
Everybody, get down! ^


E?-------------------------------------------------------|
B--------------------------------------------------------|
G?0000   00000      000000 0007630--0--------------------|
D-----33-------33----------3----------3------------------|
A--------------------------------------------------------|
E--------------------------------------------------------|
Go go go go go go go go go go go go go speed go!
[ Tab from: http://www.guitartabs.cc/tabs/d/dj_keoki/speed_racer_tab_ver_2.html ]
E----------------------------------------------------------|
B3456 (x4)-4567-(x4)-5678(x4)-6789(x4)- 78910 (x4)---------|guitar riff
G----------------------------------------------------------|
D----------------------------------------------------------|
A----------------------------------------------------------|
E-0000(x2)1111(x2)  2222(x2)-3333(x2)-------4444(x2)-------|bass riff
Uh huh, oh, oh,       (both played at same time)

E--------------------------------------------------------------------|
B--------------------------------------------------------------------|
G--------------------------------------------------------------------|
D--------------------------------------------------------------------|
A----------------------------------7----4 2--------------------------|
E-0---4--- 7------7----7----------------------4---7-4-2------0----4--|
Here he comes here comes speed racer, he?s a demon on wheels

E----------------------------------------------------------|
B----------------------------------------------------------|
G----------------------------------------------------------|
D----------------------------------------------------------|
A-7----4--------77-7-----4 ---77----7----4 ----77---- 9-7--|
E----------------------------------------------------------|
    Go speed racer go speed racer go speed racer goooo
Comments