Dj David - Absolute Chords & Tabs

 

Absolute Chords & Tabs

Dj David Chords & Tabs

Version: 1 Type: Tab 0 ratings
1 star 2 stars 3 stars 4 stars 5 stars
comments

Absolute Tab

   
Absoulte
Have heavy delay and distortion
-Intro
             G                                     A                                        B
E --------15-p-14-h-15-p14----------------------------------------------------------------------------
B----------------------------------17---15--14--14h-15-p-14-/-12-/-14 bend up to 14 and a half
G-----------------------------------------------------------------------------------------------------------
D-----------------------------------------------------------------------------------------------------------     X4
A-----------------------------------------------------------------------------------------------------------
E-----------------------------------------------------------------------------------------------------------

Break for 2 bars
[ Tab from: http://www.guitartabs.cc/tabs/d/dj_david/absolute_tab.html ]
               G                                     A                                        B
E --------15-p-14-h-15-p14----------------------------------------------------------------------------
B----------------------------------17---15--14--14h-15-p-14-/-12-/-14-/-15v---15-hold--------------
G-----------------------------------------------------------------------------------------------------------
D-----------------------------------------------------------------------------------------------------------     X4
A-----------------------------------------------------------------------------------------------------------
E-----------------------------------------------------------------------------------------------------------
-Middle
         G                 A                  B
E-------------------------------------------------------------------------------
B-------------------------------------------------------------------------------
G-----9-9-/-11-/-7-/-9-/-11-/-7v-6-4-6-7--------------------------------
D------------------------------------------------------------------------------
A-------------------------------------------------------------------------------
E-------------------------------------------------------------------------------
            G                 A                  B
E-------------------------------------------------------------------------------
B-------------------------------------------------------------------------------
G-----9-9-/-11-/-7-/-9-/-11-/-7v-------------------------------------------
D------------------------------------------------------------------------------
A-------------------------------------------------------------------------------
E-------------------------------------------------------------------------------
             G                 A                  B
E-------------------------------------------------------------------------------
B-------------------------------------------------------------------------------
G-----9-9-/-11-/-7-/-9-/-11-/-7v-6-h-7-p-6----------------------------
D----------------------------------------------------9-7------7---------------
A----------------------------------------------------------9---------------------
E-------------------------------------------------------------------------------

              G                 A                  B
E-------------------------------------------------------------------------------
B-------------------------------------------------------------------------------
G-----9-9-/-11-/-7-/-9-/-11-/-7v-------------------------------------------
D------------------------------------------------------------------------------
A-------------------------------------------------------------------------------
E-------------------------------------------------------------------------------
-Lead Fill
E-------------------------------------------------------------------------------
B-------------------------------------------------------------------------------
G-----------------------------------------------------7v--------------------------
D---------------------------7-8-9----------7-8-9-------------------------------------
A------------------7-8-9-----------7-8-9----------------------------------------------
E------7--10-----------------------------------------------------------------------
Middle 2
    G                 A                  B
E-------------------------------------------------------------------------------
B-------------------------------------------------------------------------------
G-----9-9-/-11-/-7-/-9-/-11-/-7v-6-4-6-7--------------------------------
D------------------------------------------------------------------------------
A-------------------------------------------------------------------------------
E-------------------------------------------------------------------------------
            G                 A                  B
E-------------------------------------------------------------------------------
B-------------------------------------------------------------------------------
G-----9-9-/-11-/-7-/-9-/-11-/-7v-------------------------------------------
D------------------------------------------------------------------------------
A-------------------------------------------------------------------------------
E-------------------------------------------------------------------------------

E--------------------------------------------------------------------------------
B----------------7---------------7-------------7-----------7--10--7--10 (12)--(12)-(12)-7--(12)---------
G-------9-(11)--------9-(11)-------9 (11)------9-(11)--------------------------------------------------
D--------------------------------------------------------------------------------
A--------------------------------------------------------------------------------
E----------------------------------------------------------------------------------
Comments