Dizzy Mizz Lizzy - When The River Runs Dry Chords & Tabs

 

When The River Runs Dry Chords & Tabs

Dizzy Mizz Lizzy Chords & Tabs

Version: 1 Type: Tab 2 ratings
1 star 2 stars 3 stars 4 stars 5 stars
comments

When The River Runs Dry Tab

when the river runs dry 


                                                             
by Dizzy mizz lizzy
for Guitar
Transcribed by Mark Staffen (meanguitar@hotmail.com)
http://hjem.get2net.dk/andersen.htm/



                 INTRO(alle tonerne på 6. streng skal palmmutes)                                                     
E||----------------------------------|-------------------------------|
B||----------------------------------|-------------------------------|
G||----------------------------------|------------------10-9---7-5---|
D||----------------------------------|-------------------------------|
A||----7-----7---7-7---8-----8---8-8-|----5-----5---5-x-8--7---5-3---|
E||--5---5-5---5-----5---5-5---5-----|--3---3-3---3------------------|


                                                                     
----------------------------------|---------------------------------|
----------------------------------|---------------------------------|
----------------------------------|------------------14-12---10-9---|
----------------------------------|---------------------------------|
----7-----7---7-7---8-----8---8-8-|----5-----5---5-x-12-10---8--7---|
--5---5-5---5-----5---5-5---5-----|--3---3-3---3--------------------|


                                                                   
----------------------------------|-------------------------------|
----------------------------------|-------------------------------|
----------------------------------|------------------10-9---7-5---|
----------------------------------|-------------------------------|
----7-----7---7-7---8-----8---8-8-|----5-----5---5-x-8--7---5-3---|
--5---5-5---5-----5---5-5---5-----|--3---3-3---3------------------|


                       End intro(i takten)                                                 
----------------------|-------------------|-----------------------------|
----------------------|-------------------|-----------------------------|
--4----4----4----4----|--2----------------|-----------------------------|
--1----1----2----2----|--2----------------|-----------------------------|
--2----2----2----2----|--0----------------|--7--7--8--8-9--9--9-9-9-9-9-|
----------------------|-------------------|--5--5--6--6-7--7--7-7-7-7-7-|

VERS
                                                              
-----------------------------|-------------------------------|
-----------------------------|-------------------------------|
-----------------------------|-------------------------------|
-----------------------------|-------------------------------|
--7--7--8--8-9--9--9-9-9-9-9-|--7--7--8--8-9--9--9-10-10-x-x-|
--5--5--6--6-7--7--7-7-7-7-7-|--5--5--6--6-7--7--7-8--8--x-x-|


                                                                 
----------------------------------|-----------------------------|
----------------------------------|-----------------------------|
--12----10----9------4--4-4-4-x-x-|-----------------------------|
--10--x-10--x---10-x-3--3-3-3-x-x-|-----------------------------|
--8-----8-----8-------------------|--7--7--8--8-9--9--9-9-9-9-9-|
----------------------------------|--5--5--6--6-7--7--7-7-7-7-7-|


                                                              
-----------------------------|-------------------------------|
-----------------------------|-------------------------------|
-----------------------------|-------------------------------|
-----------------------------|-------------------------------|
--7--7--8--8-9--9--9-9-9-9-9-|--7--7--8--8-9--9--9-10-10-x-x-|
--5--5--6--6-7--7--7-7-7-7-7-|--5--5--6--6-7--7--7-8--8--x-x-|


                                                                 
----------------------------------|-----------------------------|
----------------------------------|-----8----6---5--------------|
--12----10----9------4--4-4-4-x-x-|-----5--x-5-x-5-x-4---4--x-x-|
--10--x-10--x---10-x-3--3-3-3-x-x-|--0---------------0---0--x-x-|
--8-----8-----8-------------------|-----------------------------|
----------------------------------|-----------------------------|


                                                 
---------------------------|-------------------||
---------------------------|--2----------------||
--12-----10-----9-----7----|--2----------------||
---------------------------|--2----------------||
--10--0--8---0--7--0--5----|--0----------------||
---------------------------|-------------------||

CHORUS:
                                                                
E||-----------------------------|------------------------------|
B||-----3-2-------7-5----3-2----|------------------------------|
G||-----4-2-------7-5----4-2----|-----------------2-3-2--------|
D||-----------------------------|--2----2-4-2-----2-2-2--4-----|
A||--0--------0-0-----0------0--|--3--3---3-3-3-3-3-3-3--3--3--|
E||-----------------------------|------------------------------|

[ Tab from: http://www.guitartabs.cc/tabs/d/dizzy_mizz_lizzy/when_the_river_runs_dry_tab.html ]
                                                             
-----------------------------|------------------------------|
-----3-2-------7-5----3-3----|-------3--------------3-2-----|
-----4-2-------7-6----4-3----|--2--2-2----4----2--------4-2-|
-----------------------------|--3--3---3--3--3----3-----3---|
--0--------0-0-----0------0--|------------------------------|
-----------------------------|------------------------------|


                                                            
-----------------------------|-----------------------------|
-----3-2-------7-5----3-2----|----------------2-3-2--------|
-----4-2-------7-5----4-2----|---------4-2----2-2-2--4-----|
-----------------------------|--2--3-3-3-3-3--3---3--3--3--|
--0--------0-0-----0------0--|--3--------------------------|
-----------------------------|-----------------------------|


                                                           
-----------------------------|----------------------------|
-----3-2-------7-5----3-2-3--|----------------------------|
-----4-2-------7-5----4-2-4--|----------------------------|
-----------------------------|--2----2----4----2----2-----|
--0--------0-0-----5---------|--3--3---3-----3---3--3--3--|
-----------------------------|----------------------------|


                                               2. Gang omkvædet spilles:                    
--------------------------|-------------------|-----------------------------|
-----------------------3--|--2----------------|-----3-2-------7-5----3-2----|
--2--2--2--2--------------|--2----------------|-----4-2-------7-5----4-2----|
--2--2--2--2--1--1--1-----|--2----------------|-----------------------------|
--0--0--0--0--2--2--2-----|--0----------------|--0--------0-0-----0------0--|
--------------------------|-------------------|-----------------------------|


                                                             
------------------------------|-----------------------------|
------------------------------|-----3-2-------7-5----3-3----|
-----------------2-3-2--------|-----4-2-------7-6----4-3----|
--2----2-4-2-----2-2-2--4-----|-----------------------------|
--3--3---3-3-3-3-3-3-3--3--3--|--0--------0-0-----0------0--|
------------------------------|-----------------------------|


                                                             
------------------------------|-----------------------------|
-------3--------------3-2-----|-----3-2-------7-5----3-2----|
--2--2-2----4----2--------4-2-|-----4-2-------7-5----4-2----|
--3--3---3--3--3----3-----3---|-----------------------------|
------------------------------|--0--------0-0-----0------0--|
------------------------------|-----------------------------|


                                                            
-----------------------------|-----------------------------|
----------------2-3-2--------|-----3-2-------7-5----3-2-3--|
---------4-2----2-2-2--4-----|-----4-2-------7-5----4-2-4--|
--2--3-3-3-3-3--3---3--3--3--|-----------------------------|
--3--------------------------|--0--------0-0-----5---------|
-----------------------------|-----------------------------|


                                                         
----------------------------|--------------------------||
----------------------------|--------------------------||
----------------------------|--2--2--2--2--1--x--x-----||
--2----2----4----2----2-----|--2--2--2--2--2--x--x-----||
--3--3---3-----3---3--3--3--|--0--0--0--0--------------||
----------------------------|-----------------------0--||

SOLO/interlude

Denne del består af 2 guitarer,

GUITAR 1:                                            
E||----------------------------------------|
B||----------------------------------------|
G||--4--------4-----4-----------4----------|
D||--3--x--x--3--x--3--x--x--x--3--3-4-5-6-|
A||--2--x--x--2--x--2--x--x--x--2--2-3-4-5-|
E||--1--x--x--1--x--1--x--x--x--1--1-2-3-4-|


                                         
----------------------------------------|
----------------------------------------|
--8--x--x--8--x--8--x--x--x--8----------|
--7--x--x--7--x--7--x--x--x--7--7-6-5-4-|
--6--x--x--6--x--6--x--x--x--6--6-5-4-3-|
--5--x--x--5--x--5--x--x--x--5--5-4-3-2-|


                                                                    
----------------------------------------|--------------------------|
----------------------------------------|--------------------------|
--4--x--x--4--x--4--x--x--x--4----------|--8--x-----8--x--8--x--x--|
--3--x--x--3--x--3--x--x--x--3--3-4-5-6-|--7--x-----7--x--7--x--x--|
--2--x--x--2--x--2--x--x--x--2--2-3-4-5-|--6--x-----6--x--6--x--x--|
--1--x--x--1--x--1--x--x--x--1--1-2-3-4-|--5--x--0--5--x--5--x--x--|


                          \/*GUITAR "OVERDUB" |**GUITAR 2 STARTER I DENNE TAKT--                                      
											   |
-------------------------|--|--|--|--|-------------------------------|     	   |
-------------------------|--|--|--|--|-------------------------------|   
Comments