Dizzy Mizz Lizzy - Waterline Chords & Tabs

 

Waterline Chords & Tabs

Dizzy Mizz Lizzy Chords & Tabs

Version: 2 Type: Tab 0 ratings
1 star 2 stars 3 stars 4 stars 5 stars
comments

Waterline Tab

   
Hello everybody...... This is Dizzy Mizz Lizzy's breakthrough song Waterline,
from their first album "Dizzy Mizz Lizzy". It's an outstanding song, pretty
tough to play though, but try it! 

If you have corrections, comments or something else you want me to know, mail me:
nikolaj.thorborg@skolekom.dk

Riff A/intro/chorus:

D----------------------------------------------------------------------------
A-----------------------------9--10-12-15—-10///13--9----10//9----10//9------
F--9--10-13--14—-13///10--9-------------------------------------9--------7---
C-----------------------------6--7--9--12—-7////10--6-----7//6-----7//6------
G—-7--8--11--12—-11////8--7-------------------------------------7--------5---
D----------------------------------------------------------------------------

D--------------------                 D-----------------------------------
A—-10//9-------------	              A-----------------------------------
F-------------7--9---	              F---9--7----------------------------
C—--7//6--7----------		      C-----------------------------------
G---------7---5--7---		      G---7--5----------------2--3--4--5--
D---------5---------- x2       3.time D---------5h6p5--(4--3)-0--1--2--3--

Verse/Riff B:
  Really easy, you wanna know the answer………………………………………………
D----------------------------------------------------------------------------
A-----6-------6-------6---8-6---------6-------6-------6---8-6---------6------
F---7---7---7---7---7---7-----6-7---7---7---7---7---7---7-----6-7---7---7----
C-5-------5-------5---------------5-------5-------5---------------5-------5--
G----------------------------------------------------------------------------
D----------------------------------------------------------------------------

D--------------------------------------   -----------------------------------
A------4-------4-------4-------4-------   -----6-------6-------6---8-6-------
F----5---5---5---5---5---5---5---5-----   ---7---7---7---7---7---7-----6-7---
C--3-------3-------3-------3-----------   -5-------5-------5-----------------
G--------------------------------------   -----------------------------------
D--------------------------------------   ----------------------------------
first time play it all, 2. time stop here and go to Riff C:

Riff C:
  I hide with an unpredicted smile……………………………………
D-----------------------------------------------------------------
A----2--4--7--4--------2--4--7--4---------------------------------
F----2--4--7--4--------2--4--7--4---------------------------------
C----0--2--5--2--------0--2--5--2---------------------------------
G-----------------------------------------------------------------
D-----------------------------------------------------------------
[ Tab from: http://www.guitartabs.cc/tabs/d/dizzy_mizz_lizzy/waterline_tab_ver_2.html ]
Riff A/intro/chorus:
				          she don’t mind…………      
D----------------------------------------------------------------------------
A-----------------------------9--10-12-15—-10///13--9----10//9----10//9------
F--9--10-13--14—-13///10--9-------------------------------------9--------7---
C-----------------------------6--7--9--12—-7////10--6-----7//6-----7//6------
G—-7--8--11--12—-11////8--7-------------------------------------7--------5---
D----------------------------------------------------------------------------


D--------------------                 D-----------------------------------
A—-10//9-------------	              A-----------------------------------
F-------------7--9---	              F---9--7----------------------------
C—--7//6--7----------		      C-----------------------------------
G---------7---5--7---		      G---7--5----------------2--3--4--5--
D---------5---------- x2       3.time D---------5h6p5--(4-3)--0--1--2--3--

Repeat all from Riff B to Riff A

Riff D:
  With your head in the cloud……………
D--------0--0-----0--0-------0--0-------0--0-----------0—-0-----0--0---------
A----------------------------------------------------------------------------
F----2h4------2h4---------2h4--------2h4-----------2h4------2h4-------5---7--
C--2--------------------2---------------------------------------------5---7--
G-----------------------------------------------4---------------------3---5--
D---------------------------------------------------------------------------- x2

after second time
D--------------------------------------------------
A--------------------------------------------------
F---7--5------------------------------5-—7---------
C-------------------------------------5—-7---------
G---9--7----------------2--3--4--5----3--5---------
D---------5h6p5--(4--3)-0--1--2--3----------------- repeat Riff D

Riff A/intro/chorus(here outro):
D----------------------------------------------------------------------------
A-----------------------------9--10-12-15—-10///13--9----10//9----10//9------
F--9--10-13--14—-13///10--9-------------------------------------9--------7---
C-----------------------------6--7--9--12—-7////10--6-----7//6-----7//6------
G—-7--8--11--12—-11////8--7-------------------------------------7--------5---
D----------------------------------------------------------------------------

D-----------------------------------------------
A—-10//9----------------------------------------
F-------------7--9----9--7----------------------
C—--7//6--7-------------------------------------
G---------7---5--7----7--5----------------2—----
D---------5-----------------5h6p5--(4--3)-0-----

you'll have to listen to the song to get the rhythm right....... but, I have you
will enjoy this, it took me some time to finish this =) enjoy
Comments