Dizzy Mizz Lizzy - Waterline Chords & Tabs

 

Waterline Chords & Tabs

Dizzy Mizz Lizzy Chords & Tabs

Version: 1 Type: Tab 1 rating
1 star 2 stars 3 stars 4 stars 5 stars
comments

Waterline Tab

Tabs made By Søren KeNNeT Nielsen

              *Waterline riff                                   
D||-------------------|-------------------------------|
A||-------------------|-----------------------------9-|
F||----------------*9-|----10--13--14--13\\10--9---x---|
C||-------------------|---------------------------x-6-|
G||-----------------7-|----8---11--12--11\\8---7---x---|
D||-------------------|-------------------------------|

                                (Rythm changes.......|)                              
------------10-----------------|------------------------------|
----10--12------10/12--9---x-x-|--10-9------10-9------10-9----|
------------7--------------x-x-|--------9---------7---------6-|
----7---9-------7/-9---6---x-x-|--7--6------7--6------7--6--7-|
-------------------------------|--------7---------5---------7-|
-------------------------------|----------------------------5-|


                         *½ Time                                 
---------------------------|-------------------------------|
--------------------8-8----|-----------------------------9-|
------6--x-x-7--x-x-7-7--9-|----10--13--14--13\\10--9---x---|
------7--x-x-7--x-x-7-7-*--|---------------------------x-6-|
------7--x-x-5--x-x------7-|----8---11--12--11\\8---7---x---|
------5--x-x----x-x--------|-------------------------------|

                                                               
------------10-----------------|------------------------------|
----10--12------10/12--9---x-x-|--10-9------10-9------10-9----|
------------7--------------x-x-|--------9---------7---------6-|
----7---9-------7/-9---6---x-x-|--7--6------7--6------7--6--7-|
-------------------------------|--------7---------5---------7-|
-------------------------------|----------------------------5-|


         *End W.riff    #Fill 1-                           End fill 1                
---------------------------|-----------------------|---------------------|
--------------------8-8----|-----------------------|---------------------|
------6--x-x-7--x-x-7-7----|-----9--7--------------|---------------------|
------7--x-x-7--x-x-7-7*---|-----------------------|---------------------|
------7--x-x-5--x-x--------|-----7--5------------2-|------3----4----5----|
------5--x-x----x-x-----#0-|---0-------5h6p5-4-3-0-|------1----2----3----|


  Intro 2  (clean)                                                         
----------------------------|-------------------------------|
-------6------------6-------|-------6-------8---6-----------|
-----7------7-----7------7--|-----7-----7-----------6---7---|
--5------5-----5------5-----|--5------5---5---5---5---5-----|
----------------------------|-------------------------------|
----------------------------|-------------------------------|


 
----------------------------|---------------------------------|
-------6------------6-------|-------6-------8---6-------------|
-----7------7-----7------7--|-----7-----7-7---------6---7-----|
--5------5-----5------5-----|--5------5-5-5---5---5---5---5-5-|
----------------------------|---------------------------------|
----------------------------|---------------------------------|


  Vers, Riff 1                                         End riff 1                  
----------------------------|-------------------------------|
-------6------------6-------|-------6---8---6---------------|
-----7------7-----7------7--|-----7-------------8---6---7---|
--5------5-----5------5-----|--5------5---5---5---5---5-----|
----------------------------|-------------------------------|
----------------------------|-------------------------------|


   Riff 2                                                          
--------------------------------|---------------------------|
-------6-------8---6------------|------4------------4-------|
-----7-----7-----------7---6--5-|----5------5-----5------5--|
--5------5---5---5---5---5-4--3-|--------3-----3------3-----|
--------------------------------|---------------------------|
--------------------------------|---------------------------|

				     ____________	
                                |1 (End riff 2)        
--------------------------------|------------------|
-------4-------6---4------------|------------------|
-----5-----5-----------5---6--7-|------------------|
--3------3---3---3---3---3-4--5-|------------------|
--------------------------------|------------------|
--------------------------------|------------------|
 ______________
|2                                              (dist.)              End riff 2
--------------------------------|-------------|--------------------------------|
-------4-------6---4------------|-------------|------8-------10---8------------|
-----5-----5-----------5---6--7-|------7--8-9-|----9-----9------------8---9----|
--3------3---3---3---3---3-4--5-|------5--6-7-|--------7---7----7---7---7---7\\-|
--------------------------------|-------------|--------------------------------|
--------------------------------|-------------|--------------------------------|


[ Tab from: http://www.guitartabs.cc/tabs/d/dizzy_mizz_lizzy/waterline_tab.html ]
 Pre-chorus                                                                      
----------------------|------------------------|----------------------|
----------------------|--------------5----4----|----------------------|
--2----2----4----4----|--7----7----x-4--x-4----|--2----2----4----4----|
--2----2----4----4----|--7----7----x-4--x-4----|--2----2----4----4----|
--0----0----2----2----|--5----5----x-2--x-2----|--0----0----2----2----|
----------------------|------------------------|----------------------|

                                    End Pre-chorus                   
-------------|-------------------|--------------------|
-------------|--5----------------|--4\\----------------|
--7--7--7\\---|--4----------------|--4\\--------------9-|
--7--7--7\\---|--4----------------|--4\\----------------|
--5--5--5\\---|--2----------------|--2\\--------------7-|
-------------|-------------------|--------------------|


 #End W.riff Like this  *Post-chorus                                  
----------------------------|--------0-0-------0-0---------|
---------------------8-8----|------------------------------|
-#6----6--x-x-7--x-x-7-7----|----2h4-------2h4-------2h4p2-|
--7----7--x-x-7--x-x-7-7-*2-|------------------------------|
--7----7--x-x-5--x-x--------|------------------------------|
--5----5--------------------|------------------------------|

|--------0-0-------2h0---------|
|------------------------------|
|----2h4-------2h4-------2h4p2-|
|-0----------------------------|
|------------------------------|
|------------------------------|
                                                     End post-chorus         
---------0-0-------0-0---------|-----------------------------|
-------------------------------|-----5-5-5-5-----8--8--8-----|
-----2h4-------2h4-------2h4p2-|-----5-5-5-5-x-x-7--7--7-----|
-------------------------------|-----5-5-5-5-x-x-7--7--7-----|
--4----------------------------|--3--3-3-3-3-x-x-5--5--5-----|
-------------------------------|---------------------------0-|


                         *Fill2        		    End fill 2                              
---------------------------|---------------------------|
--------------------8-8----|---------------------------|
------6--x-x-7--x-x-7-7----|-----9--7------------------|
------7--x-x-7--x-x-7-7----|---------------------------|
------7--x-x-5--x-x--------|-----7--5------------2-----|
------5--x-x----x-x-----*0-|---0-------5h6p5-4-3-0-----|


Fill-in to riff 2, End fill-in Riff 1b                                             
---------------8---7---5---7----|--------------------------|
-------6---------6---6---6------|--------------------------|
-----7-----7--------------------|--------------------------|
--5------5---5---------------7--|-------3-----------4------|
--------------------------------|-----5----5------5----5---|
--------------------------------|--3-----------3-----------|


              End riff 1b  Fill-in B to riff 2                  End fill-in B                                       
--------------------------|---------------------------|-----------------------|
--------------------------|---------------------------|---------------4-------|
--------------------------|---------------------------|-------------5------5--|
-------3-----5--3---------|-------3-----5--4----------|----------3------3-----|
-----5----5--------4--5---|-----5----5--------5--4--3/|-----------------------|
--3-----------------------|--3------------------------|-----------------------|

						\'=Palm-mute
   Fill in to riff 1 (gtr 2)     Riff 1C                                                   
-------------------------------|--------------------------|
-------6---8---6---------------|-----\'-6---------\'-6------|
-----7-------------8---6---7---|--\'--7----7---\'--7----7---|
--5------5---5---5---5---5-----|--5-----------5-----------|
-------------------------------|--------------------------|
-------------------------------|--------------------------|


               End Riff 1C  Fillin B to riff 2                            
---------------------------|----------------------------|
-----\'-6-----6h8-6---------|-------6-----6h8-6----------|
--\'--7----7---------6--7---|-----7----7---------7--6--5\\|
--5------------------------|--5-------------------------|
---------------------------|----------------------------|
---------------------------|----------------------------|


            End Fillin B             
-----------------------||
---------------4-------||
-------------5------5--||
----------3------3-----||
-----------------------||
-----------------------||


CODA:

|--------0-0-------2h0---------|
|------------------------------|
|----2h4-------2h4-------2h4p2-|
|-2----------------------------|
|------------------------------|
|------------------------------|

|--------0-0-------2h0---------|
|------------------------------|
|----2h4-------2h4-------2h4p2-|
|-0----------------------------|
|------------------------------|
|------------------------------|

                                                     End CODA         
---------0-0-------2h0---------|-----------------------------|
-------------------------------|-----5-5-5-5-----8--8--8-----|
-----2h4-------2h4-------2h4p2-|-----5-5-5-5-x-x-7--7--7-----|
-------------------------------|-----5-5-5-5-x-x-7--7--7-----|
--4----------------------------|--3--3-3-3-3-x-x-5--5--5-----|
-------------------------------|-----------------------------|



FORM:

INTRO:
Waterline riff, 1x
Fill 1, 1x
...Intro 2
VERS:
Riff 1, 2x
Riff 2 (1. Ending)
Riff 1, 2x
Riff 2 (2. Ending)
Prechorus...
CHORUS:
Waterline riff, 1x
Post chorus, 2x
Fill 1, 1x
...Intro 2
VERS:
Riff 1, 2x
Riff 2 (1. Ending, m. Fillin to Riff 2 i last takt)
Riff 1b, 2x
Riff 2 (2. Ending, m. Fillin-B to Riff 2 i de 2 First takts)
Prechorus...
CHORUS.
Waterline riff, 1x
Post chorus, 1x then to CODA on marked places
Comments