Dizzy Mizz Lizzy - Love Is A Losers Game Chords & Tabs

 

Love Is A Losers Game Chords & Tabs

Dizzy Mizz Lizzy Chords & Tabs

Version: 1 Type: Bass Tab 0 ratings
1 star 2 stars 3 stars 4 stars 5 stars
comments

Love Is A Losers Game Bass Tab

   
Love is a losers game - by Dizzy Mizz Lizzy
Tabbed by Casper Nørgaard
Standard tuning (G-D-A-E)

Intro:

Rest 4 bars

|-----|
|-10\-|
|-----|
|-----|

|-------------------------------------------|
|-4----5----4----5----4----5---------6h8p6--|
|----------------------------------6--------|
|-------------------------------4-----------|

Verse
|----------------------------------------|
|-4----5----4----5----4----5----------6--|
|----------------------------------/6----|
|-------------------------------4--------|

|-------------------------------------------|
|-4----5----4----5----4----5---------6------|
|----------------------------------6--------|
|-------------------------------4--------5~-|

Chorus
|------|-----------------------------------------------------------|
|------|-------------------------------------------3-3-3-3-4-4-4-4-|
|------|-1-1-1-1-1-1-1-1--2-2-2-2-2-2-2-2--3-3-3-3-----------------|
|-//\\-|-----------------------------------------------------------|
[ Tab from: http://www.guitartabs.cc/tabs/d/dizzy_mizz_lizzy/love_is_a_losers_game_btab.html ]
|------------------------------------------------------------------|
|-4-4-4-4--4-4-4-4--4-4-4-4-3-3-3-3--3-3-3--------6--6--5-5--/17~--|
|-------------------------------------------1--1-------------------|
|------------------------------------------------------------------|

|-/11-10------------|
|---------13-13--11-|
|-------------------|
|-------------------|

Intermezzo
|-------------------------------------------|
|-4----5----4----5----4----5---------6h8p6--|
|----------------------------------6--------|
|-------------------------------4-----------|

Verse

Chorus

|-------------|
|-4----5----6-|
|-------------|
|-------------|

Bass Solo
|-/10-7-----/10--8---8-10-11-10-8--6h8p8-----------------------8--|
|--------8---------------------------------8-10-11-8-10--10-11----|
|-----------------------------------------------------------------|
|-----------------------------------------------------------------|

|---------------8-10--8------8--8-8---/11-10--8-8--6-7--|
|-11-10---10-11----------11-----8-8---------------------|
|-------------------------------------------------------|
|-------------------------------------------------------|

|-7h8p7----------5-6--|
|-------7------6------|
|---------7--7--------|
|---------------------|

Chorus x 2

Outro
|----------------------------------------|
|-4----5----4----5----4----5----------6--|
|----------------------------------/6----|
|-------------------------------4--------|

h = hammer on
p = pull off
~ = let ring
/ = slide up
\ = slide down
Comments