Dizzy Mizz Lizzy - Kings Garden Chords & Tabs

 

Kings Garden Chords & Tabs

Dizzy Mizz Lizzy Chords & Tabs

Version: 1 Type: Tab 0 ratings
1 star 2 stars 3 stars 4 stars 5 stars
comments

Kings Garden Tab

   
KINGS GARDEN
As recorded by Tim Christensen



Transcribed by Tavs Enderleit

 Words and Music by Tim Christensen
Arranged by Tim Christensen
 

Asus2
x 0 2 2 0 0 Dmaj7
x x 0 2 2 2 Esus4
0 2 2 2 0 0 E
0 2 2 1 0 0 
F7
1 2 3 1 3 1 F#m
2 4 4 2 2 2 Asus4
x 0 2 2 3 0 A
x 0 2 2 2 0 
A6/B
x 2 4 2 2 2 D6/B
x 2 4 2 3 2 

 Intro:


||------------------|----------------------|----------------------|
||------------------|-----------2----------|-----------0----------|
||------------------|----------------------|----------------------|
||------------------|-----2--4-------------|--0--2--4-------------|
||------------------|--0-------------------|----------------------|
||------------------|----------------------|----------------------|

-----------------------|---------------------------|-----------5----------5--|
-----------2-----------|--0-------------------0----|-----1--3-------1--3-----|
--------------------4--|--2-----4--1-----4--2---2--|-------------------------|
-----2--4--------------|-----0---------------------|-------------------------|
--0--------------------|--------------2------------|--0----------------------|
-----------------------|---------------------------|-------------------------|

----------5--4--------||
----0--3--------------||
----------------------||
----------------------||
----------------------||
----------------------||

 Verse:

      Asus2
Is it true ?
         Dmaj7                   Esus4 E
That the pain inside me could be you,
       F7                          F#m
What I thought was all gone lingers on,
       Dmaj7           Esus4  E
Always slightly out of reach.

        Asus2
Picture this,
      Dmaj7                      Esus4 E
Suddenly you don't know what you miss.
        F7                F#m
But whatever it is, it's a word,
       Dmaj7        Esus4       E
Always slightly overheard these days.

 Chorus:
[ Tab from: http://www.guitartabs.cc/tabs/d/dizzy_mizz_lizzy/kings_garden_tab.html ]
       Asus4 A           Asus4   A
But in kings garden I'll find my way,
     A6/B  D6/B        Dmaj7     E
From kings garden to a brave new day
   Asus4 A           Asus4  A               A6/B  D6/B  Dmaj7  E
In kings garden, the king's gotten over the dream.

 Verse:

  Asus2 
I believe,
        Dmaj7                  Esus4 E
Between you and the moon I can see,
      F7                       F#m
How I thought it would be but a cloud's,
       Dmaj7           Esus4  E
Always slightly in the way.

        Asus4
Are you sad ?
        Dmaj7                 Esus4 E
Now our future belongs to the past.
        F7                    F#m
Like an old photograph still remains,
       Dmaj7           Esus4 E
Always slightly out of focus now.

 Chorus:

       Asus4 A           Asus4   A
But in kings garden I'll find my way,
     A6/B  D6/B        Dmaj7     E
From kings garden to a brave new day
   Asus4 A           Asus4  A               A6/B  D6/B  Dmaj7  E
In kings garden, the king's gotten over the dream.

 Solo: Asus4 Dmaj7 Esus4 E F7 F#m Dmaj7 Esus4 E

 Chorus:

       Asus4 A            Asus4    A
Yes in kings garden we'll mend our wings,
     A6/B  D6/B         Dmaj7  E
From kings garden we'll fly   again.
   Asus4 A           Asus4      A       A6/B  D6/B Dmaj7   E   A
In kings garden, the king's got another dream.
Comments