Dizzy Mizz Lizzy - Hidden War Chords & Tabs

 

Hidden War Chords & Tabs

Dizzy Mizz Lizzy Chords & Tabs

Version: 1 Type: Tab 0 ratings
1 star 2 stars 3 stars 4 stars 5 stars
comments

Hidden War Tab

Dizzy Mizz Lizzy - Hiddenwar:


Intro - Light overdrive:
D||------------------------|-----------------------|--------------------------|
A||--0h-2--0---------0h-2--|--0---------0h-2--0----|-------------------8------|
F||--2---------------2-----|------------2----------|--2h-4--2----------7h--9--|
C||--2----------2----2-----|-------2----2----------|--0----------------10-----|
G||--0----------0----0-----|-------0----0----------|--------------------------|
D||------------------------|-----------------------|-------------3/-8---------|

-------------------|------------------------|-----------------------|
-------------------|--0h-2--0---------0h-2--|--0---------0h-2--0----|
--7----------------|--2---------------2-----|------------2----------|
-------------------|--2----------2----2-----|-------2----2----------|
-------------------|--0----------0----0-----|-------0----0----------|
-------------------|------------------------|-----------------------|

-------------------------|-------------------||
-------------------------|-------------------||
--2h-4--2----------2h-4--|--2----------------||
--0----------2h-4--------|-------------------||
-------------------------|-------------------||
-------------------------|-------------------||


verse:
||-------------------------|-----------------------|--------------------------|-------------------|
||---0h-2--0---------0h-2--|--0---------0h-2--0----|-------------------8------|-------------------|
||*--2---------------2-----|------------2----------|--2h-4--2----------7h--9--|--7----------------|
||*--2----------2----2-----|-------2----2----------|--0----------------10-----|-------------------|
||---0----------0----0-----|-------0----0----------|--------------------------|-------------------|
||-------------------------|-----------------------|-------------3/-8---------|-------------------|

------------------------|-----------------------|-----------------2----|
--0h-2--0---------0h-2--|--0---------0h-2--0----|-----------------3----|
--2---------------2-----|------------2----------|--2h-4--2--------2----|
--2----------2----2-----|-------2----2----------|--0--------------0----|
--0----------0----0-----|-------0----0----------|----------------------|
------------------------|-----------------------|----------------------|


                     Heavier dist. chorus:
-------------------||---------------------|-----------------2----|
-------------------||----------0h-2--0----|-----------------3----|
------------------*||----------2----------|--2h-4--2--------2----|
------------------*||----------2----------|--0--------------0----|
-------------------||----------0----------|----------------------|
-------------------||---------------------|----------------------|

--2----2--2--2--------|--0h-2--0---------0h-2--|--0---------0h-2--0----|
--3----3--3--3--------|--3----------3----3-----|-------3----3----------|
--2----2--2--2--------|--2----------2----2-----|-------2----2----------|
--0----0--0--0--------|--0----------0----0-----|-------0----0----------|
----------------------|------------------------|-----------------------|
----------------------|------------------------|-----------------------|

[ Tab from: http://www.guitartabs.cc/tabs/d/dizzy_mizz_lizzy/hidden_war_tab.html ]
                                                      Artificial Harmonics on the 
7th fret note (C)
------------------8-----|------------8-------------|--5---------------5-----|
--8---------------8-----|------------8---8---------|--5---------------5-----|
--7h--9--7--------9-----|--9-----9---9---9---------|--6h-7--6----6----6h-7--|
--10--------------10----|--10----10--10--10--------|--7----------7----7-----|
------------------------|--10----10----------------|--0----------0----0-----|
------------------------|--8-----8-----------------|------------------------|

------------5----------|------------------3----|--3----3--3--3--------|
------------5----------|------------------3----|--3----3--3--3--------|
--6----6----6h-7--6----|--2h-4--2---------0----|--0----0--0--0--------|
-------7----7----------|--0----------0----0----|--0----0--0--0--------|
-------0----0----------|-------------2----2----|--2----2--2--2--------|
-----------------------|-------------3----3----|--3----3--3--3--------|

------------2----------|-----2-------2---------||---------------------2----|
------------3----------|-----3-------3---------||---------3--------3--3----|
------------2----------|-----2-------2---------||*-----0--------0-----2----|
--0----0----0----0--0--|--0--0----0--0------0--||*--------------------0----|
-----------------------|-----------------------||---3--------2-------------|
-----------------------|-----------------------||--------------------------|


                       2x
--2----2--2--2---------||------------0----------|-----0-------0--------|
--3----3--3--3---------||------------3----------|-----3-------3--------|
--2----2--2--2--------*||------------0----------|-----0-------0--------|
--0----0--0--0--------*||------------2----------|-----2-------2--------|
-----------------------||--3----3----3----3--3--|--3--3----3--3--------|
-----------------------||-----------------------|----------------------|

------------3----------|---------------------||
------------3----------|---------------------||
------------0----------|---------------------||
------------0----3--0--|--3----3----0--------||
------------2----------|---------------------||
--3----3----3----------|---------------------||


First part of the solo! I don't know what tim plays after this, so i just play something else!
||-----------------------|-------------------------|------------------------|------------------------|
||--0h-2--0--------------|----------------2--3--5--|--2b--------------------|--2p0----2--2b----------|
||-----------------2h-4--|--2-------2--4-----------|---------4p2-4----2-----|------2--------4--------|
||-----------------------|-------4-----------------|---------------------4--|------------------------|
||-----------------------|-------------------------|------------------------|------------------------|
||-----------------------|-------------------------|------------------------|------------------------|

-----------------------|--------------------------|-----------4h5p4--------|
--5\-2-----------------|-----------------2h-3--2--|-----------------5------|
-----------------------|-----2--4--2--4-----------|------4------------4----|
--------------------2--|--4-----------------------|------------------------|
--------------2--4-----|--------------------------|------------------------|
-----------------------|--------------------------|------------------------|

---------------||
---------------||
--4h6p4p3h4----||
---------------||
---------------||
---------------||

Good Luck!
Comments