Dizzy Mizz Lizzy - Glory Chords & Tabs

 

Glory Chords & Tabs

Dizzy Mizz Lizzy Chords & Tabs

Version: 5 Type: Tab

Glory Tab

Author: KimPiX - tabs@kimpix.dk

e------------------------------------------------------------|
B------------------------------------------------------------|
G-------6~--------8b9-8---8p6--------------------------------|
D--8----------------------------8/---------------------------|
A-------------------------------------x--6--4--6--4----------|
E------------------------------------------------------------|

e---------------------------------------------------------------------------|
B---------------------------------------6---9-------------------6--7--------|
G-------6---------8b10-----------6---8b9------8b9-6------6--8b9------8b9-8--|
D--8------------------------8-------------------------8---------------------|
A---------------------------------------------------------------------------|
E---------------------------------------------------------------------------|

e------------------------------------------------------|
B------------------------------------------------------|
G--6--10--8--10--6--10--5--10-----10--8--10--6--10--5--|
D------------------------------8-----------------------|
A------------------------------------------------------|
E------------------------------------------------------|
[ Tab from: http://www.guitartabs.cc/tabs/d/dizzy_mizz_lizzy/glory_tab_ver_5.html ]
e--------------------------------------------------------------------------|
B--------------------------------------------------------------------------|
G-----11--10--11--8--11--6--11--5-5--6--8--8b10b8-6----6-8b10b8-6----------|
D--8------------------------------------------------8-------------8--------|
A--------------------------------------------------------------------------|
E--------------------------------------------------------------------------|

e--------------------------------------------------------------------------|
B-------------------------6-9-6--------------------------------------------|
G---------------------6-8-------8-6--8-6-8--8b10b8-8b10b8-8b10b8--6---6~---|
D--------6-8------6-8-----------------------------------------------8------|
A---6-8--------------------------------------------------------------------|
E--------------------------------------------------------------------------|

e--------------------------------------------------------------------------|
B--------------------------------------------------------------------------|
G--------------------------------------------------------------------------|
D----------6---------------------------------------------------------------|
A--------------------------------------------------------------------------|
E--------------------------------------------------------------------------|