Division Of Laura Lee - Black City Chords & Tabs

 

Black City Chords & Tabs

Division Of Laura Lee Chords & Tabs

Version: 1 Type: Tab 0 ratings
1 star 2 stars 3 stars 4 stars 5 stars
comments

Black City Tab

BAND: Division of Laura Lee
SONG: Black City


Intro/Verse     for the 6th and 5th fret play 15x and for the 4th fret 30x

e|---------------------------------------------------------------|
B|-6-15x--5-15x--4-30x-------------------------------------------|
G|---------------------------------------------------------------|
D|---------------------------------------------------------------|
A|---------------------------------------------------------------|
E|---------------------------------------------------------------|
[ Tab from: http://www.guitartabs.cc/tabs/d/division_of_laura_lee/black_city_tab.html ]
Chorus after verse 1    
     2x          2x        2x
e|----------|---------|---------|----------|-6-6-6-6-6-6-6-6-----|
B|----------|---------|---------|----------|---------------------|
G|----------|---------|---------|----------|---------------------|
D|--5-5-5-5-|---------|---------|-6-6-6-6b-|---------------------|
A|----------|-5-5-5-5-|-7-7-7-7-|----------|---------------------|
E|----------|---------|---------|----------|---------------------|

Bridge

e|------------------|------------------|------------------|
B|------------------|------------------|------------------|
G|------------------|------------------|------------------|
D|------------------|------------------|------------------|
A|-4-4-4-4--4-4-4-4-|-3-3-3-3--3-3-3-3-|-2-2-2-2--2-2-2-2-|
E|------------------|------------------|------------------|
Comments