Divididos - Que Ves Chords & Tabs

 

Que Ves Chords & Tabs

Divididos Chords & Tabs

Version: 1 Type: Chords 0 ratings
1 star 2 stars 3 stars 4 stars 5 stars
comments

Que Ves Chords

   
***********************
*DIVIDIDOS - ¿QUE VES?*
***********************

HECHO POR: JUAN ANGEL DE CAMILLIS.

AFINCACION: Normal (E-A-D-G-B-e).

Cualquier correción, sugerencia, mandame un mail a jadecam_akd@hotmail.com, espero que les
sea de utilidad.

INTRO:
   Am     G      D/F#
e|--5-x-5--3-x-3--2-x-2--1---1-1-1--||
B|--5-x-5--3-x-3--3-x-3--1---1-1-1--||
G|--5-x-5--4-x-4--2-x-2--2---2-2-2--|| y repite
D|--7-x-7--5-x-5--4-x-4--3---3-3-3--||
A|--7-x-7--5-x-5--5-x-5--3---3-3-3--||
E|--5-x-5--3-x-3--2-x-2--1---1-1-1--||

_________________________________________________________
VERSO 1:
    Am     G      D/F#
e|--5-x-5--3-x-3--2-x-2--1---1-1-1--||
B|--5-x-5--3-x-3--3-x-3--1---1-1-1--||
G|--5-x-5--4-x-4--2-x-2--2---2-2-2--|| y repite
D|--7-x-7--5-x-5--4-x-4--3---3-3-3--||
A|--7-x-7--5-x-5--5-x-5--3---3-3-3--||
E|--5-x-5--3-x-3--2-x-2--1---1-1-1--||

 "El wa-wa de Troilo no quiere arrancar..."
 "Falta envido, truco, chiste nacional..."
 "Estamos en vena, grita el mayoral..."
 "Y pagas el vale un dia despues..."
_________________________________________________________
ESTRIBILLO:
    Am     G      Am     G
e|--5-x-5--3-x-3--5-x-5--3-x-3--||
B|--5-x-5--3-x-3--5-x-5--3-x-3--||
G|--5-x-5--4-x-4--5-x-5--4-x-4--||
D|--7-x-7--5-x-5--7-x-7--5-x-5--||
A|--7-x-7--5-x-5--7-x-7--5-x-5--||
E|--5-x-5--3-x-3--5-x-5--3-x-3--||

  "Queee ves?,    que ves cuando me ves...?

    Am     G      D/F#  
e|--5-x-5--3-x-3--2-x-2--1---1-1-1--||
B|--5-x-5--3-x-3--3-x-3--1---1-1-1--||
G|--5-x-5--4-x-4--2-x-2--2---2-2-2--|| 
D|--7-x-7--5-x-5--4-x-4--3---3-3-3--||
A|--7-x-7--5-x-5--5-x-5--3---3-3-3--||
E|--5-x-5--3-x-3--2-x-2--1---1-1-1--||
[ Tab from: http://www.guitartabs.cc/tabs/d/divididos/que_ves_crd.html ]
"Cuando la mentira es la verdad..."
_________________________________________________________
VERSO 2:
    Am     G      D/F#
e|--5-x-5--3-x-3--2-x-2--1---1-1-1--||
B|--5-x-5--3-x-3--3-x-3--1---1-1-1--||
G|--5-x-5--4-x-4--2-x-2--2---2-2-2--|| y repite
D|--7-x-7--5-x-5--4-x-4--3---3-3-3--||
A|--7-x-7--5-x-5--5-x-5--3---3-3-3--||
E|--5-x-5--3-x-3--2-x-2--1---1-1-1--||
   
  "La prensa de dios lleva poster central..."
  "el bien y el mal definen por penal..."
  "fia la chapita porron en Palomar..."
  "cruzando la via pa' poderla pasar..."
_________________________________________________________

ESTRIBILLO (x2):
_________________________________________________________

SOLO:

e|---------------------------------------------------------||
B|---------------------------------------------------------||
G|-4--5~----4--5/-7~-----7--5-/9~--5/7---4----5------------||
D|---------------------------------------------------------||

e|---------------------------------------------------------||
B|---------------------------------------------------------||
G|-4--2---------2--4--5-----5--4/12~~--5-----7-4-----5-4-2-||
D|---------------------------------------------------------||

_________________________________________________________

VERSO 3:
    Am     G      D/F#
e|--5-x-5--3-x-3--2-x-2--1---1-1-1--||
B|--5-x-5--3-x-3--3-x-3--1---1-1-1--||
G|--5-x-5--4-x-4--2-x-2--2---2-2-2--||
D|--7-x-7--5-x-5--4-x-4--3---3-3-3--||
A|--7-x-7--5-x-5--5-x-5--3---3-3-3--||
E|--5-x-5--3-x-3--2-x-2--1---1-1-1--||
 
  "fia la chapita porron en Palomar..."
  "cruzando la via pa' poderla pasar..."
_________________________________________________________

ESTRIBILLO 3:

Am     G      Am     G
e|--5-x-5--3-x-3--5-x-5--3-x-3--||
B|--5-x-5--3-x-3--5-x-5--3-x-3--||
G|--5-x-5--4-x-4--5-x-5--4-x-4--||
D|--7-x-7--5-x-5--7-x-7--5-x-5--||
A|--7-x-7--5-x-5--7-x-7--5-x-5--||
E|--5-x-5--3-x-3--5-x-5--3-x-3--||

  "Queee ves?,    que ves cuando me ves...?

    Am     G      D/F#  
e|--5-x-5--3-x-3--2-x-2--1---1-1-1--||
B|--5-x-5--3-x-3--3-x-3--1---1-1-1--||
G|--5-x-5--4-x-4--2-x-2--2---2-2-2--|| 
D|--7-x-7--5-x-5--4-x-4--3---3-3-3--||
A|--7-x-7--5-x-5--5-x-5--3---3-3-3--||
E|--5-x-5--3-x-3--2-x-2--1---1-1-1--||

 "Cuando la mentira es la verdad..."
 "Mentira es la ultima verdad..."
Am     G      Am     G
e|--5-x-5--3-x-3--5-x-5--3-x-3--||
B|--5-x-5--3-x-3--5-x-5--3-x-3--||
G|--5-x-5--4-x-4--5-x-5--4-x-4--||
D|--7-x-7--5-x-5--7-x-7--5-x-5--||
A|--7-x-7--5-x-5--7-x-7--5-x-5--||
E|--5-x-5--3-x-3--5-x-5--3-x-3--||

_________________________________________________________

OUTRO

e|--5--3--5--||
B|--5--3--5--||
G|--5--4--5--||
D|--7--5--7--||
A|--7--5--7--||
E|--5--3--5--||
Comments