Divididos - Camaron Bombay Chords & Tabs

 

Camaron Bombay Chords & Tabs

Divididos Chords & Tabs

Version: 2 Type: Bass Tab 0 ratings
1 star 2 stars 3 stars 4 stars 5 stars
comments

Camaron Bombay Bass Tab

   
**Esta es la versi?n en vivo del CD Viveza Criolla**

Verso 1
G|----------------------------|-------------------------|
D|----------------------------|-------------------------|
A|---------3--3-11-2h3--55555-|-----------33333--4h5----|
E|-3-1-2-3--------------------|-3--3-11-3-------------3-|
[ Tab from: http://www.guitartabs.cc/tabs/d/divididos/camaron_bombay_btab_ver_2.html ]
Puente
G|-----------------|x2
D|-----------------|
A|-(3)-(2)-(0)-(2)-|
E|-----------------|

Verso 2
G|------------------------|------------------------|
D|------------------------|----------------5-------|
A|------3--3-11-2h3--5----|----------33333--3--4h5-|
E|-3--3-----------------3-|-33333-3----------------|
Comments