Divididos - Alma De Budin Chords & Tabs

 

Alma De Budin Chords & Tabs

Divididos Chords & Tabs

Version: 1 Type: Bass Tab 0 ratings
1 star 2 stars 3 stars 4 stars 5 stars
comments

Alma De Budin Bass Tab

   
Intro

   D D  E  A            F# E   A            G     D 
|----------------------------|-------------------/7-7-|
|----------------------------|----------------5-------|
|----5-(7)-------------------|------------------------|
|-/3-------5-5-5-5-5-5--2--0-|-5-5-5-5-5-5--3---------|


Verso
[ Tab from: http://www.guitartabs.cc/tabs/d/divididos/alma_de_budin_btab.html ]
   G D  E  A            G   D      A            F# E
|--------------------------------|-------------------|
|-------------------------5---3--|-------------------|
|----5-(7)------------------5----|-------------------| 
|-/3-------5-5-5-5-5-5--3--------|-5-5-5-5-5-5--2--0-|


Estribo

  D               F#           G           A
|---------3-4/7-|----11---9--|---------------|
|---3-4-7-------|------------|---------------|
|-5-------------|-/9----9----|---------------|
|---------------|------------|-3-4-5-6-7-6-5-|
Comments