Divididos - Ala Delta Chords & Tabs

 

Ala Delta Chords & Tabs

Divididos Chords & Tabs

Version: 1 Type: Bass Tab 0 ratings
1 star 2 stars 3 stars 4 stars 5 stars
comments

Ala Delta Bass Tab

INTRO (aclaracion: asi como se puede tocar como lo 
transcribí,
tambien se puede hacerlo tocando sobre la 1º y 2ª 
cuerda, esto quiere
decir por ejemplo, que el indice y el anular, en vez 
de el primer
acorde 14-16, van a tocar 9-11 en la 1º y 2ª cuerda 
respectivamente, y asi
con todos los acordes)
G|-------------------------
D|-14-12-14---12--14---12--
A|-16-14-16---14--16---14--
E|--0--0--0--0--0--0--0--0-

G|-------------------------
D|-14-12-14---12--14---18~-
A|-16-14-16---14--16---20~-
E|--0--0--0--0--0--0--0--0-

G|-------------------------
D|-------14---12--14---12--
A|-------16---14--16---14--
E|--0--0--0--0--0--0--0--0-

G|-------------------------
D|-14121314---12--14---12--
A|-14121314---14--16---14--
E|--0--0--0--0--0--0--0--0-

         -GUITARRA
G|-------------------------
D|-14-12-14---12--14---18~-
A|-16-14-16---14--16---20~-
E|--0--0--0--0--0--0--0--0-

G|-------------------------
D|-------14---12--14---12--
A|-------16---14--16---14--
E|--0--0--0--0--0--0--0--0-

G|-------------------------
D|-14-12-14---12--14---12--
A|-16-14-16---14--16---14--
E|--0--0--0--0--0--0--0--0-

G|-------------------------
D|-14121314---12--14---18~-
A|-14121314---14--16---20~-
E|--0--0--0--0--0--0--0--0-


G|-------------------------
D|-------14---12--14---12--
A|-------16---14--16---14--
E|--0--0--0--0--0--0--0--0-

G|-------------------------
D|-14-12-14---12--14---12--
A|-16-14-16---14--16---14--
E|--0--0--0--0--0--0--0--0-

G|-------------------------
D|-12121314---12--14---12--
A|-14141516---14--16---14--
E|--0--0--0--0--0--0--0--0-

G|-------------------------------
D|-14-12-14---12--14---12---7--5-
A|-16-14-16---14--16---14---9--7-
E|--0--0--0--0--0--0--0--0--0--0-

  'Una chica en el cielo...'
G|----------------------------------------------------
D|*14---12--14---12--14-12-14---12--14---12--14-12-14-
A|*16---14--16---14--16-14-16---14--16---14--16-14-16-
E|--0--0--0--0--0--0--0--0--0--0--0--0--0--0--0--0--0-
[ Tab from: http://www.guitartabs.cc/tabs/d/divididos/ala_delta_btab.html ]
G|----------------------------------------------|
D|---12--14---18~-------14---12--14---12--14-12*|
A|---14--16---20~-------16---14--16---14--16-14*|
E|--0--0--0--0--0--0--0--0--0--0--0--0--0--0--0-|
 4 veces

  'Y los pibes remontaban...'
G|-------------------------|
D|*14---12--14---12--14-12*|
A|*16---14--16---14--16-14*| 4 veces
E|--0--0--0--0--0--0--0--0-|


G|-------------------------|-------------------------|
D|-14---12--14---12--14-12-|*14----12----18~--------*|
A|-16---14--16---14--16-14-|*16----14----20~--------*| 
E|--0--0--0--0--0--0--0--0-|--0-----0-----0----------|
4 veces
 
 En esta parte tengo mis serias dudas,por eso solo
 pongo las notas basicas, los arreglos 'improvisados' 
 de Diego Arnedo se los dejamos a él, y a esta altura 
 seria una falta de respeto traducir esas 
 improvisaciones (Diego sos un capo!!!). Traten
 de meter los arreglos uds, para eso escuchen bien 
 el tema. La mayoria son a base de octavas y
 de escalas . Pueden escuchar la version del tema 
 en el disco 'viveza criolla' en donde emplea 
 slapping-popping
 La nomenclatura '(x16)' indica la cantidad 
 de repeticiones de la nota puesta delante.
 
'Una chica en el cielo...'
G|---------------------------------------------|
D|*-------------------------------------6-----*|
A|*-7(x16)-5(x8)-------7(x16)-7----5----------*|4 veces
E|---------------5(x8)-------------------------|
 
 'Y los pibes....'
G|-------------------------|
D|*-----------------------*|
A|*-----------------------*| 4 veces
E|--5(x8)-3(x8)-0(x16)-----|


 Volvemos al punteo:
G|-------------------------|
D|*14-12-14---12--14---12-*|
A|*16-14-16---14--16---14-*| 16 veces
E|--0--0--0--0--0--0--0--0-|

G|-------------------------|
D|*14----12----18~--------*|
A|*16----14----20~--------*| 4 veces
E|--0-----0-----0----------|

G|---------------------------------------------|
D|*-------------------------------------6-----*|
A|*-7(x16)-5(x8)-------7(x16)-7----5----------*|4 veces
E|---------------5(x8)-------------------------|
 
 'Y los pibes....'
G|-------------------------|
D|*-----------------------*|
A|*-----------------------*| 7 veces
E|--5(x8)-3(x8)-0(x16)-----|

Final:
G|--------------------------13-------------|
D|-----------------------------------------|
A|---------------------------------11/19---|
E|--5(x8)-3(x8)-12----10-------------------|
Comments