Divididos - 15 Chords & Tabs

 

15 Chords & Tabs

Divididos Chords & Tabs

Version: 1 Type: Tab 0 ratings
1 star 2 stars 3 stars 4 stars 5 stars
comments

15 Tab

Intro:

E-----0-----------------------------------------------
B-----0^2-0--------3^5^3------------------------------
G---1-------1------2----------------1-----------------
D----------------4-------4--3-2-1---1-----------------
A---------------------------5-4-3---------------------
E-0------------0--------------------------------------

                                     Fin Intro.
E-----0--------0--------------------------------------
B-----0^2-0----0-------2-----1------------------------
G---1--------1---------2--1--1------------------------
D--------------------2----1--1------------------------
A------------------4------3---------------------------
E-0---------------------------------------------------

1ra. Parte.
E-----------------------------------------------------
B---------------------3-------------------------------
G------------------------------------------1----------
D-6------5------4--------3---2-----1------------------
A-7------6------5--------5---4-----3------------------
E-----------------------------------------------------
  Volviendo de Haedo     Rosales y Guemes, mojó

E-------0-0-------0-----------------------------------
B-----0---0^2^0---0------2-----1----------------------
G---1-----------1--------2--1--1----------------------
D----------------------2----1--1----------------------
A--------------------4------3-------------------------
E-0---------------------------------------------------

[ Tab from: http://www.guitartabs.cc/tabs/d/divididos/15_tab.html ]
E-----------------------------------------------------
B-------------------3---------------------------------
G---------------------------------------------1-------
D-----------------------------------------------------
A-6-----5------4-------3----2--------1----------------
E-7-----6------5-------5----4--------3----------------
  bolas clandestinas   le fabrica al héroe el perdón

E-----------0-----------------------------------------
B-------0---0^2-0---------2------1--------------------
G-----1-----------1-------2---1--1--------------------
D---2-------------------2-----1--1--------------------
A---------------------4-------3-----------------------
E-0---------------------------------------------------

2da. Parte
E-----------------------------------------------------
B-----2-----1-------2------1------2-----1-------------
G-----2--1--1-------2------1------2-----1-------------
D---2----1--1-----2------1------2-----1------------4--
A-4------3------4------3------4-----3--------------4--
E--------------------------------------------------2--
     No vaya a ser              No vaya a ser que no es


Intermedio

E-----0--------------------------0--------------------
B-----0-------3------------------0-------3------------
G---1---1-----2------------1---1---1-----2------------
D-----------4---4--3--2--1-------------4---4--3--2--1-
A------------------5--4--3--------------------5--4--3-
E-0-------0------------------0-------0----------------

Melodia que va arriba del intermedio

E------------------4-7---9-7-4------------------------
B----------------------9-------5-3-2-1----------------
G-----------------------------------------------------
D-------4-2------------------4---4--------------------
A-----8-----2-3----------7---------4-3----------------
E-4-8------------4---7--------------------------------

1ra. Parte
Santos en remera,
vuelven sin amor por amor.
Besos de paciencia,
corazón de ochava, olvidar.

2da. Parte
No vaya a ser.
No vaya a ser que no es.


Final como en Intermedio.
Comments