Divididos - 15-5 Chords & Tabs

 

15-5 Chords & Tabs

Divididos Chords & Tabs

Version: 1 Type: Tab 0 ratings
1 star 2 stars 3 stars 4 stars 5 stars
comments

15-5 Tab

DIVIDIDOS
Otro le travaladna
Mollo-Arnedo

Intro:
e|-----0---------------------------------|
B|-----0h2-0---------3/5-3---------------|
G|---1-------1-------2----------------1--|
D|-----------------4-------4--3-2-1---1--|
A|----------------------------5-4-3------|
E|-0------------0------------------------|

e|-----0--------0-----------------|
B|-----0h2-0----0-------2-----1---|
G|---1--------1---------2--1--1---|
D|--------------------2----1--1---|
A|------------------4------3------|
E|-0------------------------------|

  Volviendo de Haedo     Rosales y Guemes, mojó
e|------------------------------------------------|
B|---------------------3--------------------------|
G|------------------------------------------1-----|
D|-6------5------4--------3---2-----1-------------|
A|-7------6------5--------5---4-----3-------------|
E|------------------------------------------------|

e|-------0-0--------0-----------------|
B|---------0h2-0----0-------2-----1---|
G|-----1----------1---------2--1--1---|
D|---2--------------------2----1--1---|
A|----------------------4------3------|
E|-0----------------------------------|
[ Tab from: http://www.guitartabs.cc/tabs/d/divididos/15_5_tab.html ]
  bolas clandestinas   le fabrica al héroe el perdón
e|--------------------------------------------------|
B|-------------------3------------------------------|
G|---------------------------------------------1----|
D|-6------5------4-----3------2------1--------------|
A|-7------6------5-----5------4------3--------------|
E|--------------------------------------------------|

e|------0-0--------0-----------------|
B|----0---0h2-0----0-------2-----1---|
G|---1-----------1---------2--1--1---|
D|-----------------------2----1--1---|
A|---------------------4------3------|
E|-0---------------------------------|

        No vaya a ser                      No vaya a ser que no es
e|------------------------------------------------------------------|
B|-----2-------------1-------2------1------2-----1------------------|
G|-----2----1--------1-------2------1------2-----1------------------|
D|---2------1--------1-----2------1------2-----1-----------------4--|
A|-4--------3------------4------3------4-----3-------------------4--|
E|---------------------------------------------------------------2--|

E|-----0--------------------------0--------------------|
B|-----0-------3------------------0-------3------------|
G|---1---1-----2------------1---1---1-----2------------|
D|-----------4---4--3--2--1-------------4---4--3--2--1-|
A|------------------5--4--3--------------------5--4--3-|
E|-0-------0------------------0-------0----------------|

Santos en remera
vuelven sin amor por amor
besos de paciencia
corazón de ochava, olvidar

No vaya a ser
No vaya a ser que no es
Comments