Divided Highway - Vase Song Chords & Tabs

 

Vase Song Chords & Tabs

Divided Highway Chords & Tabs

Version: 1 Type: Tab 0 ratings
1 star 2 stars 3 stars 4 stars 5 stars
comments

Vase Song Tab

   
Divide Highway======== "The Vase Song"  from "Live from Mojoes"

Words and Music by Joe Cirillo and Ryan Coe

Guitar 1
Verse:
e-------2------0-----3---------------
b-------3------3-----3---------------
g-------2------2-----0--------------- (repeated throughout verse)
d-------0------2-----0---------------
a-------x------0-----0---------------
E------x-------x---- 3---------------

Guitar 2
Verse:
e--------10-----------10---12---10-------------
b---10------------10-----------------------------
g-------------------------------------------------- (repeated throughout verse)
d--------------------------------------------------
a--------------------------------------------------
E--------------------------------------------------

Guitar 1
Pre- Chorus:
e------0-----3-----3-----0h2------        
b------0-----3-----3-------3-------        
g------0-----0-----2-------2-------      X 2
d------2-----2-----0-------0-------        
a------2-----3-----x-------x-------        
E------0-----x-----x-------x-------        
          Em   C/G   D/G    D

Guitar 2
Pre-Chorus:

He plays the same general chords accept for he has distortion and is playing bar chords instead.

Guitar 1
Chorus:
e-----3----------3---------3----------0h2                e-----0------3-----3----0h2--------
b-----3----------3---------3-----------3                   b-----0------3-----3-----3---------
g-----0----------0---------2-----------2        X 2     g-----0------0-----2------2--------     X 2
d-----0----------2---------0-----------0                   d-----2------2-----0------0--------
a-----2----------3---------x-----------x                    a-----2------3-----x------x--------
E-----3----------x---------x-----------x                   E-----0------x-----x------x--------

Guitar 2
Chorus:
	He plays the same chords but he makes them bar chords with distortion on.... he also takes the Em up an octave and plays that bar chord.
[ Tab from: http://www.guitartabs.cc/tabs/d/divided_highway/vase_song_tab.html ]
Guitar Solo:
e----------------------------------------------------------------------------------------------------------------
b----------------------------------------------------------------------------------------------------------------
g----------------------------------------------------10------------12----10---------------------------------------
d----------------------------10---------12---12----------12-----------------12----10--------10----------------
a---------------10----12--------12--------------------------------------------------------12--------12----------
E------10/12-------------------------------------------------------------------------------------------------------

e-----10----10----13-----10-----10------13-----15----13-----------13----------------------------------------
b-------------------------------------------------------------------15---------15-----13-----15----13-------13-
g-------------------------------------------------------------------------------------------------------------14----
d--------------------------------------------------------------------------------------------------------------------
a--------------------------------------------------------------------------------------------------------------------
E--------------------------------------------------------------------------------------------------------------------

e--------------------------------------------------------------------------------------------------------------------
b--------------------------------------------------------------------------------------------151515151515------
g------999999999121212121212141414141414-------9999999121212121212------------------------
d---------------------------------------------------------------------------------------------121212121212-----
a-------777777777101010101010121212121212-------7777777101010101010------------------------
E--------------------------------------------------------------------------------------------------------------------


This song isnt that hard...but i like the way it sounded so i had to tab it out for all the D High fans out there.....the bass part is pretty tough so i wasnt even gonna try to tab that one out for ya.

Any comments or ?'s email       ryeryeryecoe@yahoo.com
Comments