Disturbed - Voices Chords & Tabs

 

Voices Chords & Tabs

Disturbed Chords & Tabs

Version: 4 Type: Tab 1 rating
1 star 2 stars 3 stars 4 stars 5 stars
comments

Voices Tab

   
This is my first tab and if you don't like it then get used to it cause they'll all be this bad

Drop the low E into a D so you've got D-a-D-G-B-E

I'm Pretty sure about this but don't kill me if its not perfect.

                    Intro                  

  ||------------------------------------------------------
  ||------------------------------------------------------
  ||------------------------------------------------------  
  ||---10------ 8--------10---------8---------------------   Play that a few times until your satisfied
  ||---8--------8---------9---------10--------------------
  ||---8--------8---------8---------8---------------------

                  Main Riff
 
  ||--------------------------------------------------
  ||--------------------------------------------------
  ||--------------------------------------------------
  ||--6---h8---h8---h8---h8------2--------------------   Play that a few times then play......
  ||--6---h8---h8---h8---h8------2--------------------   
  ||--6---h8---h8---h8---h8------2--------------------

[ Tab from: http://www.guitartabs.cc/tabs/d/disturbed/voices_tab_ver_4.html ]
  ||-------------------------------------------------
  ||-------------------------------------------------
  ||-------------------------------------------------
  ||--6---h8---h8---h8---h8------9----9--------------   
  ||--6---h8---h8---h8---h8------9----9--------------   
  ||--6---h8---h8---h8---h8------9----9--------------


I'm not sure about the verse but the bit after the 'ZOOOOOOOOOAAH' (where he talks total bull shit
which I don't understand ) is ..........

  ||---------------------------------------------------
  ||---------------------------------------------------
  ||---------------------------------------------------
  ||---8-----6-----9------3------4-----6---------------  do that as many times as you want then do this 
  ||---8-----6-----9------3------4-----6---------------
  ||---8-----6-----9------3------4-----6---------------

  ||----------------------------------
  ||----------------------------------
  ||----------------------------------
  ||-----8------6------9----9----9----
  ||-----8------6------9----9----9----
  ||-----8------6------9----9----9----


If someone can fill in the gaps i'd be most thankful anyway theres my parts from that bad ass song by disturbed . If you have any quiries or complaints or even compliments e-mail me at x_guns_n_roses_x@yahoo.com 

Comments