Disturbed - Voices Chords & Tabs

 

Voices Chords & Tabs

Disturbed Chords & Tabs

Version: 3 Type: Tab 0 ratings
1 star 2 stars 3 stars 4 stars 5 stars
comments

Voices Tab

Band: Disturbed
Song: Voices
Album: The Sickness
Transcribed: Tommi S.

Tuning: Down a half-step thed drop to Db

I'm not saying that this is right but I have tried to make it as good as
possible. At least I play it like this, and it sounds pretty good.
If you have any corrections, please send me an E-Mail.

Intro:

E:|------------------|
B:|------------------|
G:|------------------|
D:|-11----9--11----9-|
A:|--9----9--10----9-|
E:|--9----9---9----9-|

After Intro:

E:|--------------------------|------------------------------|
B:|--------------------------|------------------------------|
G:|--------------------------|------------------------------|
D:|--7h9--7h9--7h9--7h9--3-3-|--7h9--7h9--7h9--7h9--9/15-15-|
A:|--7h9--7h9--7h9--7h9--3-3-|--7h9--7h9--7h9--7h9--9/15-15-|
E:|--7h9--7h9--7h9--7h9--3-3-|--7h9--7h9--7h9--7h9--9/15-15-|

E:|--------------------------|------------------------------|
B:|--------------------------|------------------------------|
G:|--------------------------|------------------------------|
D:|--7h9--7h9--7h9--7h9--3-3-|--7h9--7h9--7h9--7h9--x-x-x-x-|
A:|--7h9--7h9--7h9--7h9--3-3-|--7h9--7h9--7h9--7h9--x-x-x-x-|
E:|--7h9--7h9--7h9--7h9--3-3-|--7h9--7h9--7h9--7h9--x-x-x-x-|

Verse:

E:|--------------------------|----------------------------|
B:|--------------------------|----------------------------|
G:|--------------------------|----------------------------|
D:|--------------------------|----------------------------|
A:|--------------------------|----------------------------|
E:|--7h9--7h9--7h9--7h9--3-3-|--7h9--7h9--7h9--7h9--15-15-|
[ Tab from: http://www.guitartabs.cc/tabs/d/disturbed/voices_tab_ver_3.html ]
                                                    Ending 1:      Ending 2:
E:|--------------------------|---------------------|-------(7)-|  |---------|
B:|--------------------------|---------------------|----(7)----|  |---------|
G:|--------------------------|---------------------|-(7)-------|  |---------|
D:|--------------------------|---------------------|-----------|  |---------|
A:|--------------------------|---------------------|-----------|  |---------|
E:|--7h9--7h9--7h9--7h9--3-3-|--7h9--7h9--7h9--7h9-|-----------|  |--15-15--|

Chorus:

E:|---------------------------|--------------------------|
B:|---------------------------|--------------------------|
G:|---------------------------|--------------------------|
D:|--0---0--4---4--9---9------|--0---0--4---4--9---9-----|
A:|--0-0----4-4----9-9--------|--0-0----4-4----9-9---9---|
E:|--0------4------9----------|--0------4------9-------9-|

E:|-------------------|
B:|-------------------|
G:|-------------------|
D:|--0---0--4---4--0--|
A:|--0-0----4-4----0--|
E:|--0------4------0--|

Bridge:

E:|---------------------|          |----------------------------|
B:|---------------------|          |----------------------------|
G:|---------------------|          |------------11--11--11--11--|
D:|--9--7--10--4--5--7--| 5X Then: |--9--7--10---9---9---9---9--|
A:|--9--7--10--4--5--7--|          |--9--7--10------------------|
E:|--9--7--10--4--5--7--|          |--9--7--10------------------|

2nd Bridge:

E:|-------------------------------|-------------------------------|
B:|-------------------------------|-------------------------------|
G:|-------------------------------|-------------------------------|
D:|-------------------------------|-------------------------------|
A:|-------------------------------|-------------------------------|
E:|-9--12-9--10-9--12-9--10-9--12-|-9--12-9--10-9--12-9--10-9--15-|



Comments